  0
SECTION
  2
HEADER
  9
$ACADVER
  1
AC1015
  9
$ACADMAINTVER
 70
     6
  9
$DWGCODEPAGE
  3
ANSI_1252
  9
$INSBASE
 10
0.0
 20
0.0
 30
0.0
  9
$EXTMIN
 10
33634.4066326951
 20
26160.6925044188
 30
0.0
  9
$EXTMAX
 10
34455.0116670194
 20
26700.0550096177
 30
0.0
  9
$LIMMIN
 10
0.0
 20
0.0
  9
$LIMMAX
 10
420.0
 20
297.0
  9
$ORTHOMODE
 70
     0
  9
$REGENMODE
 70
     1
  9
$FILLMODE
 70
     1
  9
$QTEXTMODE
 70
     0
  9
$MIRRTEXT
 70
     1
  9
$LTSCALE
 40
1.0
  9
$ATTMODE
 70
     1
  9
$TEXTSIZE
 40
3.5
  9
$TRACEWID
 40
1.0
  9
$TEXTSTYLE
  7
Standard
  9
$CLAYER
  8
0
  9
$CELTYPE
  6
ByLayer
  9
$CECOLOR
 62
   256
  9
$CELTSCALE
 40
1.0
  9
$DISPSILH
 70
     0
  9
$DIMSCALE
 40
1.0
  9
$DIMASZ
 40
3.302
  9
$DIMEXO
 40
1.0
  9
$DIMDLI
 40
3.75
  9
$DIMRND
 40
0.0
  9
$DIMDLE
 40
0.0
  9
$DIMEXE
 40
1.0
  9
$DIMTP
 40
0.0
  9
$DIMTM
 40
0.0
  9
$DIMTXT
 40
3.5
  9
$DIMCEN
 40
2.5
  9
$DIMTSZ
 40
0.0
  9
$DIMTOL
 70
     0
  9
$DIMLIM
 70
     0
  9
$DIMTIH
 70
     1
  9
$DIMTOH
 70
     1
  9
$DIMSE1
 70
     0
  9
$DIMSE2
 70
     0
  9
$DIMTAD
 70
     1
  9
$DIMZIN
 70
     0
  9
$DIMBLK
  1

  9
$DIMASO
 70
     1
  9
$DIMSHO
 70
     1
  9
$DIMPOST
  1

  9
$DIMAPOST
  1

  9
$DIMALT
 70
     0
  9
$DIMALTD
 70
     3
  9
$DIMALTF
 40
0.0393700787
  9
$DIMLFAC
 40
1.0
  9
$DIMTOFL
 70
     1
  9
$DIMTVP
 40
0.0
  9
$DIMTIX
 70
     0
  9
$DIMSOXD
 70
     0
  9
$DIMSAH
 70
     0
  9
$DIMBLK1
  1

  9
$DIMBLK2
  1

  9
$DIMSTYLE
  2
ISO-25
  9
$DIMCLRD
 70
     0
  9
$DIMCLRE
 70
     0
  9
$DIMCLRT
 70
     0
  9
$DIMTFAC
 40
1.0
  9
$DIMGAP
 40
1.524
  9
$DIMJUST
 70
     0
  9
$DIMSD1
 70
     0
  9
$DIMSD2
 70
     0
  9
$DIMTOLJ
 70
     0
  9
$DIMTZIN
 70
     0
  9
$DIMALTZ
 70
     0
  9
$DIMALTTZ
 70
     0
  9
$DIMUPT
 70
     0
  9
$DIMDEC
 70
     2
  9
$DIMTDEC
 70
     2
  9
$DIMALTU
 70
     2
  9
$DIMALTTD
 70
     3
  9
$DIMTXSTY
  7
Standard
  9
$DIMAUNIT
 70
     0
  9
$DIMADEC
 70
     2
  9
$DIMALTRND
 40
0.0
  9
$DIMAZIN
 70
     0
  9
$DIMDSEP
 70
    44
  9
$DIMATFIT
 70
     3
  9
$DIMFRAC
 70
     0
  9
$DIMLDRBLK
  1

  9
$DIMLUNIT
 70
     2
  9
$DIMLWD
 70
    -2
  9
$DIMLWE
 70
    -2
  9
$DIMTMOVE
 70
     0
  9
$LUNITS
 70
     2
  9
$LUPREC
 70
     2
  9
$SKETCHINC
 40
1.0
  9
$FILLETRAD
 40
10.0
  9
$AUNITS
 70
     0
  9
$AUPREC
 70
     2
  9
$MENU
  1
.
  9
$ELEVATION
 40
0.0
  9
$PELEVATION
 40
0.0
  9
$THICKNESS
 40
0.0
  9
$LIMCHECK
 70
     0
  9
$CHAMFERA
 40
0.0
  9
$CHAMFERB
 40
0.0
  9
$CHAMFERC
 40
0.0
  9
$CHAMFERD
 40
0.0
  9
$SKPOLY
 70
     0
  9
$TDCREATE
 40
2458171.474089861
  9
$TDUCREATE
 40
2458171.432423194
  9
$TDUPDATE
 40
2458171.474117535
  9
$TDUUPDATE
 40
2458171.432450868
  9
$TDINDWG
 40
0.0000000116
  9
$TDUSRTIMER
 40
0.0000000116
  9
$USRTIMER
 70
     1
  9
$ANGBASE
 50
0.0
  9
$ANGDIR
 70
     0
  9
$PDMODE
 70
     0
  9
$PDSIZE
 40
-1.0
  9
$PLINEWID
 40
0.0
  9
$SPLFRAME
 70
     0
  9
$SPLINETYPE
 70
     6
  9
$SPLINESEGS
 70
     8
  9
$HANDSEED
  5
287
  9
$SURFTAB1
 70
     6
  9
$SURFTAB2
 70
     6
  9
$SURFTYPE
 70
     6
  9
$SURFU
 70
     6
  9
$SURFV
 70
     6
  9
$UCSBASE
  2

  9
$UCSNAME
  2

  9
$UCSORG
 10
0.0
 20
0.0
 30
0.0
  9
$UCSXDIR
 10
1.0
 20
0.0
 30
0.0
  9
$UCSYDIR
 10
0.0
 20
1.0
 30
0.0
  9
$UCSORTHOREF
  2

  9
$UCSORTHOVIEW
 70
     0
  9
$UCSORGTOP
 10
0.0
 20
0.0
 30
0.0
  9
$UCSORGBOTTOM
 10
0.0
 20
0.0
 30
0.0
  9
$UCSORGLEFT
 10
0.0
 20
0.0
 30
0.0
  9
$UCSORGRIGHT
 10
0.0
 20
0.0
 30
0.0
  9
$UCSORGFRONT
 10
0.0
 20
0.0
 30
0.0
  9
$UCSORGBACK
 10
0.0
 20
0.0
 30
0.0
  9
$PUCSBASE
  2

  9
$PUCSNAME
  2

  9
$PUCSORG
 10
0.0
 20
0.0
 30
0.0
  9
$PUCSXDIR
 10
1.0
 20
0.0
 30
0.0
  9
$PUCSYDIR
 10
0.0
 20
1.0
 30
0.0
  9
$PUCSORTHOREF
  2

  9
$PUCSORTHOVIEW
 70
     0
  9
$PUCSORGTOP
 10
0.0
 20
0.0
 30
0.0
  9
$PUCSORGBOTTOM
 10
0.0
 20
0.0
 30
0.0
  9
$PUCSORGLEFT
 10
0.0
 20
0.0
 30
0.0
  9
$PUCSORGRIGHT
 10
0.0
 20
0.0
 30
0.0
  9
$PUCSORGFRONT
 10
0.0
 20
0.0
 30
0.0
  9
$PUCSORGBACK
 10
0.0
 20
0.0
 30
0.0
  9
$USERI1
 70
     0
  9
$USERI2
 70
     0
  9
$USERI3
 70
     0
  9
$USERI4
 70
     0
  9
$USERI5
 70
     0
  9
$USERR1
 40
0.0
  9
$USERR2
 40
0.0
  9
$USERR3
 40
0.0
  9
$USERR4
 40
0.0
  9
$USERR5
 40
0.0
  9
$WORLDVIEW
 70
     1
  9
$SHADEDGE
 70
     3
  9
$SHADEDIF
 70
    70
  9
$TILEMODE
 70
     1
  9
$MAXACTVP
 70
    64
  9
$PINSBASE
 10
0.0
 20
0.0
 30
0.0
  9
$PLIMCHECK
 70
     0
  9
$PEXTMIN
 10
1.0000000000E+20
 20
1.0000000000E+20
 30
1.0000000000E+20
  9
$PEXTMAX
 10
-1.0000000000E+20
 20
-1.0000000000E+20
 30
-1.0000000000E+20
  9
$PLIMMIN
 10
0.0
 20
0.0
  9
$PLIMMAX
 10
420.0
 20
297.0
  9
$UNITMODE
 70
     0
  9
$VISRETAIN
 70
     1
  9
$PLINEGEN
 70
     0
  9
$PSLTSCALE
 70
     1
  9
$TREEDEPTH
 70
  3020
  9
$CMLSTYLE
  2
Standard
  9
$CMLJUST
 70
     0
  9
$CMLSCALE
 40
20.0
  9
$PROXYGRAPHICS
 70
     1
  9
$MEASUREMENT
 70
     1
  9
$CELWEIGHT
370
    -1
  9
$ENDCAPS
280
     0
  9
$JOINSTYLE
280
     0
  9
$LWDISPLAY
290
     1
  9
$INSUNITS
 70
     4
  9
$HYPERLINKBASE
  1

  9
$STYLESHEET
  1

  9
$XEDIT
290
     1
  9
$CEPSNTYPE
380
     0
  9
$PSTYLEMODE
290
     1
  9
$FINGERPRINTGUID
  2
{975BA976-264C-4F19-8FB6-9680476D9B9C}
  9
$VERSIONGUID
  2
{FAEB1C32-E019-11D5-929B-00C0DF256EC4}
  9
$EXTNAMES
290
     1
  9
$PSVPSCALE
 40
0.0
  9
$OLESTARTUP
290
     0
  0
ENDSEC
  0
SECTION
  2
CLASSES
  0
CLASS
  1
ACDBDICTIONARYWDFLT
  2
AcDbDictionaryWithDefault
  3
ObjectDBX Classes
 90
        0
280
     0
281
     0
  0
CLASS
  1
VISUALSTYLE
  2
AcDbVisualStyle
  3
ObjectDBX Classes
 90
     4095
280
     0
281
     0
  0
CLASS
  1
MATERIAL
  2
AcDbMaterial
  3
ObjectDBX Classes
 90
     1153
280
     0
281
     0
  0
CLASS
  1
SCALE
  2
AcDbScale
  3
ObjectDBX Classes
 90
     1153
280
     0
281
     0
  0
CLASS
  1
TABLESTYLE
  2
AcDbTableStyle
  3
ObjectDBX Classes
 90
     4095
280
     0
281
     0
  0
CLASS
  1
MLEADERSTYLE
  2
AcDbMLeaderStyle
  3
ACDB_MLEADERSTYLE_CLASS
 90
     4095
280
     0
281
     0
  0
CLASS
  1
SUN
  2
AcDbSun
  3
SCENEOE
 90
     1153
280
     0
281
     0
  0
CLASS
  1
ACDBPLACEHOLDER
  2
AcDbPlaceHolder
  3
ObjectDBX Classes
 90
        0
280
     0
281
     0
  0
CLASS
  1
LAYOUT
  2
AcDbLayout
  3
ObjectDBX Classes
 90
        0
280
     0
281
     0
  0
ENDSEC
  0
SECTION
  2
TABLES
  0
TABLE
  2
VPORT
  5
8
330
0
100
AcDbSymbolTable
 70
     1
  0
VPORT
  5
29
330
8
100
AcDbSymbolTableRecord
100
AcDbViewportTableRecord
  2
*Active
 70
     0
 10
0.0
 20
0.0
 11
1.0
 21
1.0
 12
34044.7091498572
 22
26430.3737570182
 13
0.0
 23
0.0
 14
10.0
 24
10.0
 15
10.0
 25
10.0
 16
0.0
 26
0.0
 36
1.0
 17
0.0
 27
0.0
 37
0.0
 40
550.1497553029
 41
1.5214350764
 42
50.0
 43
0.0
 44
0.0
 50
0.0
 51
0.0
 71
     0
 72
   100
 73
     1
 74
     3
 75
     0
 76
     0
 77
     0
 78
     0
281
     0
 65
     1
110
0.0
120
0.0
130
0.0
111
1.0
121
0.0
131
0.0
112
0.0
122
1.0
132
0.0
 79
     0
146
0.0
  0
ENDTAB
  0
TABLE
  2
LTYPE
  5
5
330
0
100
AcDbSymbolTable
 70
     6
  0
LTYPE
  5
14
330
5
100
AcDbSymbolTableRecord
100
AcDbLinetypeTableRecord
  2
ByBlock
 70
     0
  3

 72
    65
 73
     0
 40
0.0
  0
LTYPE
  5
15
330
5
100
AcDbSymbolTableRecord
100
AcDbLinetypeTableRecord
  2
ByLayer
 70
     0
  3

 72
    65
 73
     0
 40
0.0
  0
LTYPE
  5
16
330
5
100
AcDbSymbolTableRecord
100
AcDbLinetypeTableRecord
  2
Continuous
 70
     0
  3
Solid line
 72
    65
 73
     0
 40
0.0
  0
LTYPE
  5
6E
330
5
100
AcDbSymbolTableRecord
100
AcDbLinetypeTableRecord
  2
HIDDEN
 70
     0
  3
Hidden __ __ __ __ __ __ __ __ __ __ __ __ __ __
 72
    65
 73
     2
 40
1.905
 49
1.27
 74
     0
 49
-0.635
 74
     0
  0
LTYPE
  5
6F
330
5
100
AcDbSymbolTableRecord
100
AcDbLinetypeTableRecord
  2
PHANTOM
 70
     0
  3
Phantom ______  __  __  ______  __  __  ______
 72
    65
 73
     6
 40
12.7
 49
6.35
 74
     0
 49
-1.27
 74
     0
 49
1.27
 74
     0
 49
-1.27
 74
     0
 49
1.27
 74
     0
 49
-1.27
 74
     0
  0
LTYPE
  5
70
330
5
100
AcDbSymbolTableRecord
100
AcDbLinetypeTableRecord
  2
CENTER
 70
     0
  3
Center ____ _ ____ _ ____ _ ____ _ ____ _ ____
 72
    65
 73
     4
 40
10.16
 49
6.35
 74
     0
 49
-1.27
 74
     0
 49
1.27
 74
     0
 49
-1.27
 74
     0
  0
LTYPE
  5
71
330
5
100
AcDbSymbolTableRecord
100
AcDbLinetypeTableRecord
  2
CENTERX2
 70
     0
  3
Center (2x) ________  __  ________  __  _____
 72
    65
 73
     4
 40
20.32
 49
12.7
 74
     0
 49
-2.54
 74
     0
 49
2.54
 74
     0
 49
-2.54
 74
     0
  0
LTYPE
  5
72
330
5
100
AcDbSymbolTableRecord
100
AcDbLinetypeTableRecord
  2
DOT2
 70
     0
  3
Dot (.5x) ........................................
 72
    65
 73
     2
 40
0.635
 49
0.0
 74
     0
 49
-0.635
 74
     0
  0
ENDTAB
  0
TABLE
  2
LAYER
  5
2
330
0
100
AcDbSymbolTable
 70
     1
  0
LAYER
  5
10
330
2
100
AcDbSymbolTableRecord
100
AcDbLayerTableRecord
  2
0
 70
     0
 62
     7
  6
Continuous
370
    -3
390
F
  0
ENDTAB
  0
TABLE
  2
STYLE
  5
3
330
0
100
AcDbSymbolTable
 70
     1
  0
STYLE
  5
11
330
3
100
AcDbSymbolTableRecord
100
AcDbTextStyleTableRecord
  2
Standard
 70
     0
 40
0.0
 41
1.0
 50
0.0
 71
     0
 42
3.5
  3
txt
  4

  0
ENDTAB
  0
TABLE
  2
VIEW
  5
6
330
0
100
AcDbSymbolTable
 70
     0
  0
ENDTAB
  0
TABLE
  2
UCS
  5
7
330
0
100
AcDbSymbolTable
 70
     0
  0
ENDTAB
  0
TABLE
  2
APPID
  5
9
330
0
100
AcDbSymbolTable
 70
     1
  0
APPID
  5
12
330
9
100
AcDbSymbolTableRecord
100
AcDbRegAppTableRecord
  2
ACAD
 70
     0
  0
ENDTAB
  0
TABLE
  2
DIMSTYLE
  5
A
330
0
100
AcDbSymbolTable
 70
     1
100
AcDbDimStyleTable
  0
DIMSTYLE
105
27
330
A
100
AcDbSymbolTableRecord
100
AcDbDimStyleTableRecord
  2
ISO-25
 70
     0
 41
2.5
 42
0.625
 43
3.75
 44
1.25
 73
     0
 74
     0
 77
     1
 78
     8
140
2.5
141
2.5
143
0.0393700787
147
0.625
171
     3
172
     1
178
     0
271
     2
272
     2
274
     3
278
    44
283
     0
284
     8
340
11
  0
ENDTAB
  0
TABLE
  2
BLOCK_RECORD
  5
1
330
0
100
AcDbSymbolTable
 70
     1
  0
BLOCK_RECORD
  5
1F
330
1
100
AcDbSymbolTableRecord
100
AcDbBlockTableRecord
  2
*Model_Space
340
22
  0
BLOCK_RECORD
  5
1B
330
1
100
AcDbSymbolTableRecord
100
AcDbBlockTableRecord
  2
*Paper_Space
340
1E
  0
BLOCK_RECORD
  5
23
330
1
100
AcDbSymbolTableRecord
100
AcDbBlockTableRecord
  2
*Paper_Space0
340
26
  0
ENDTAB
  0
ENDSEC
  0
SECTION
  2
BLOCKS
  0
BLOCK
  5
20
330
1F
100
AcDbEntity
  8
0
100
AcDbBlockBegin
  2
*Model_Space
 70
     0
 10
0.0
 20
0.0
 30
0.0
  3
*Model_Space
  1

  0
ENDBLK
  5
21
330
1F
100
AcDbEntity
  8
0
100
AcDbBlockEnd
  0
BLOCK
  5
1C
330
1B
100
AcDbEntity
 67
     1
  8
0
100
AcDbBlockBegin
  2
*Paper_Space
 70
     0
 10
0.0
 20
0.0
 30
0.0
  3
*Paper_Space
  1

  0
ENDBLK
  5
1D
330
1B
100
AcDbEntity
 67
     1
  8
0
100
AcDbBlockEnd
  0
BLOCK
  5
24
330
23
100
AcDbEntity
  8
0
100
AcDbBlockBegin
  2
*Paper_Space0
 70
     0
 10
0.0
 20
0.0
 30
0.0
  3
*Paper_Space0
  1

  0
ENDBLK
  5
25
330
23
100
AcDbEntity
  8
0
100
AcDbBlockEnd
  0
ENDSEC
  0
SECTION
  2
ENTITIES
  0
LINE
  5
73
330
1F
100
AcDbEntity
  8
0
  6
Continuous
 62
     7
370
    25
100
AcDbLine
 10
34061.4096455351
 20
26669.0855511216
 30
0.0
 11
34061.4122500272
 21
26669.0855511216
 31
0.0
  0
SPLINE
  5
74
330
1F
100
AcDbEntity
  8
0
  6
Continuous
 62
     7
370
    25
100
AcDbSpline
210
0.0
220
0.0
230
1.0
 70
     8
 71
     3
 72
     8
 73
     4
 74
     0
 42
0.000000001
 43
0.00000001
 40
7.0
 40
7.0
 40
7.0
 40
7.0
 40
7.008959117654547
 40
7.008959117654547
 40
7.008959117654547
 40
7.008959117654547
 10
34061.41225002724
 20
26669.08555112158
 30
0.0
 10
34061.41303671475
 20
26669.08555112158
 30
0.0
 10
34061.41382208824
 20
26669.08554547718
 30
0.0
 10
34061.41460610915
 20
26669.08553422639
 30
0.0
  0
SPLINE
  5
75
330
1F
100
AcDbEntity
  8
0
  6
Continuous
 62
     7
370
    25
100
AcDbSpline
210
0.0
220
0.0
230
1.0
 70
     8
 71
     3
 72
     8
 73
     4
 74
     0
 42
0.000000001
 43
0.00000001
 40
4.999116657030847
 40
4.999116657030847
 40
4.999116657030847
 40
4.999116657030847
 40
5.0
 40
5.0
 40
5.0
 40
5.0
 10
34061.41460610915
 20
26669.08553422639
 30
0.0
 10
34061.41468889223
 20
26669.08553990252
 30
0.0
 10
34061.41477169566
 20
26669.08554553426
 30
0.0
 10
34061.41485451942
 20
26669.08555112158
 30
0.0
  0
SPLINE
  5
76
330
1F
100
AcDbEntity
  8
0
  6
Continuous
 62
     7
370
    25
100
AcDbSpline
210
0.0
220
0.0
230
1.0
 70
     8
 71
     3
 72
     8
 73
     4
 74
     0
 42
0.000000001
 43
0.00000001
 40
5.0
 40
5.0
 40
5.0
 40
5.0
 40
5.984612822495347
 40
5.984612822495347
 40
5.984612822495347
 40
5.984612822495347
 10
34061.41485451942
 20
26669.08555112158
 30
0.0
 10
34061.50241102235
 20
26669.08408574077
 30
0.0
 10
34061.57229282438
 20
26669.01318403495
 30
0.0
 10
34061.57300202981
 20
26668.92629726822
 30
0.0
  0
LINE
  5
77
330
1F
100
AcDbEntity
  8
0
  6
Continuous
 62
     7
370
    25
100
AcDbLine
 10
34061.5730020298
 20
26668.9262972682
 30
0.0
 11
34062.9124375272
 21
26583.5209134263
 31
0.0
  0
LINE
  5
78
330
1F
100
AcDbEntity
  8
0
  6
Continuous
 62
     7
370
    25
100
AcDbLine
 10
34062.9124375272
 20
26583.5209134263
 30
0.0
 11
34062.9124375272
 21
26550.780772313
 31
0.0
  0
LINE
  5
79
330
1F
100
AcDbEntity
  8
0
  6
Continuous
 62
     7
370
    25
100
AcDbLine
 10
34062.9124375272
 20
26550.780772313
 30
0.0
 11
34061.5730310087
 21
26492.055423649
 31
0.0
  0
SPLINE
  5
7A
330
1F
100
AcDbEntity
  8
0
  6
Continuous
 62
     7
370
    25
100
AcDbSpline
210
0.0
220
0.0
230
1.0
 70
     8
 71
     3
 72
     8
 73
     4
 74
     0
 42
0.000000001
 43
0.00000001
 40
9.020349631346777
 40
9.020349631346777
 40
9.020349631346777
 40
9.020349631346777
 40
10.0
 40
10.0
 40
10.0
 40
10.0
 10
34061.57303100865
 20
26492.05542364902
 30
0.0
 10
34061.57234709564
 20
26491.96912162561
 30
0.0
 10
34061.50308594805
 20
26491.89855354418
 30
0.0
 10
34061.41597073036
 20
26491.89636655127
 30
0.0
  0
LINE
  5
7B
330
1F
100
AcDbEntity
  8
0
  6
Continuous
 62
     7
370
    25
100
AcDbLine
 10
34061.4159707304
 20
26491.8963665513
 30
0.0
 11
34061.4085293241
 21
26491.8963665513
 31
0.0
  0
SPLINE
  5
7C
330
1F
100
AcDbEntity
  8
0
  6
Continuous
 62
     7
370
    25
100
AcDbSpline
210
0.0
220
0.0
230
1.0
 70
     8
 71
     3
 72
     8
 73
     4
 74
     0
 42
0.000000001
 43
0.00000001
 40
1.0
 40
1.0
 40
1.0
 40
1.0
 40
1.267105508873063
 40
1.267105508873063
 40
1.267105508873063
 40
1.267105508873063
 10
34061.40852932412
 20
26491.89636655127
 30
0.0
 10
34061.38487640094
 20
26491.89691315244
 30
0.0
 10
34061.36252420666
 20
26491.90256975999
 30
0.0
 10
34061.34250085595
 20
26491.91225862614
 30
0.0
  0
SPLINE
  5
7D
330
1F
100
AcDbEntity
  8
0
  6
Continuous
 62
     7
370
    25
100
AcDbSpline
210
0.0
220
0.0
230
1.0
 70
     8
 71
     3
 72
     8
 73
     4
 74
     0
 42
0.000000001
 43
0.00000001
 40
0.2866145554437426
 40
0.2866145554437426
 40
0.2866145554437426
 40
0.2866145554437426
 40
1.0
 40
1.0
 40
1.0
 40
1.0
 10
34061.34250085838
 20
26491.91225863115
 30
0.0
 10
34061.28992057157
 20
26491.93762595005
 30
0.0
 10
34061.2531082295
 20
26491.99081824485
 30
0.0
 10
34061.25151565223
 20
26492.05319418799
 30
0.0
  0
LINE
  5
7E
330
1F
100
AcDbEntity
  8
0
  6
Continuous
 62
     7
370
    25
100
AcDbLine
 10
34061.2515156522
 20
26492.053194188
 30
0.0
 11
34059.8584844022
 21
26550.7770516099
 31
0.0
  0
LINE
  5
7F
330
1F
100
AcDbEntity
  8
0
  6
Continuous
 62
     7
370
    25
100
AcDbLine
 10
34059.8584844022
 20
26550.7770516099
 30
0.0
 11
34059.8584844022
 21
26583.5183089341
 31
0.0
  0
LINE
  5
80
330
1F
100
AcDbEntity
  8
0
  6
Continuous
 62
     7
370
    25
100
AcDbLine
 10
34059.8584844022
 20
26583.5183089341
 30
0.0
 11
34061.25149921
 21
26668.9264131359
 31
0.0
  0
SPLINE
  5
81
330
1F
100
AcDbEntity
  8
0
  6
Continuous
 62
     7
370
    25
100
AcDbSpline
210
0.0
220
0.0
230
1.0
 70
     8
 71
     3
 72
     8
 73
     4
 74
     0
 42
0.000000001
 43
0.00000001
 40
5.015792634085551
 40
5.015792634085551
 40
5.015792634085551
 40
5.015792634085551
 40
5.177178011509719
 40
5.177178011509719
 40
5.177178011509719
 40
5.177178011509719
 10
34061.25149920997
 20
26668.92641313591
 30
0.0
 10
34061.251626642
 20
26668.94068051421
 30
0.0
 10
34061.25362110276
 20
26668.95450839099
 30
0.0
 10
34061.2572511305
 20
26668.96766374054
 30
0.0
  0
SPLINE
  5
82
330
1F
100
AcDbEntity
  8
0
  6
Continuous
 62
     7
370
    25
100
AcDbSpline
210
0.0
220
0.0
230
1.0
 70
     8
 71
     3
 72
     8
 73
     4
 74
     0
 42
0.000000001
 43
0.00000001
 40
4.159204350056208
 40
4.159204350056208
 40
4.159204350056208
 40
4.159204350056208
 40
4.245017442028193
 40
4.245017442028193
 40
4.245017442028193
 40
4.245017442028193
 10
34061.2572511304
 20
26668.96766374056
 30
0.0
 10
34061.25912361951
 20
26668.97450262803
 30
0.0
 10
34061.26143439447
 20
26668.98111812629
 30
0.0
 10
34061.26415829767
 20
26668.98749025033
 30
0.0
  0
SPLINE
  5
83
330
1F
100
AcDbEntity
  8
0
  6
Continuous
 62
     7
370
    25
100
AcDbSpline
210
0.0
220
0.0
230
1.0
 70
     8
 71
     3
 72
     8
 73
     4
 74
     0
 42
0.000000001
 43
0.00000001
 40
5.260588397035629
 40
5.260588397035629
 40
5.260588397035629
 40
5.260588397035629
 40
6.0
 40
6.0
 40
6.0
 40
6.0
 10
34061.26415829776
 20
26668.98749025031
 30
0.0
 10
34061.28825252219
 20
26669.04429322674
 30
0.0
 10
34061.34416861578
 20
26669.08445066915
 30
0.0
 10
34061.40964553505
 20
26669.08555112158
 30
0.0
  0
LINE
  5
84
330
1F
100
AcDbEntity
  8
0
  6
Continuous
 62
     7
370
    25
100
AcDbLine
 10
33864.0304375272
 20
26492.4319617661
 30
0.0
 11
33872.386020535
 21
26492.2178353013
 31
0.0
  0
SPLINE
  5
85
330
1F
100
AcDbEntity
  8
0
  6
Continuous
 62
     7
370
    25
100
AcDbSpline
210
0.0
220
0.0
230
1.0
 70
     8
 71
     3
 72
     8
 73
     4
 74
     0
 42
0.000000001
 43
0.00000001
 40
229.0
 40
229.0
 40
229.0
 40
229.0
 40
229.1492752731749
 40
229.1492752731749
 40
229.1492752731749
 40
229.1492752731749
 10
33872.38602053504
 20
26492.21783530127
 30
0.0
 10
33872.39926703911
 20
26492.21747428544
 30
0.0
 10
33872.41209899903
 20
26492.21552556557
 30
0.0
 10
33872.4243375782
 20
26492.21217602287
 30
0.0
  0
SPLINE
  5
86
330
1F
100
AcDbEntity
  8
0
  6
Continuous
 62
     7
370
    25
100
AcDbSpline
210
0.0
220
0.0
230
1.0
 70
     8
 71
     3
 72
     8
 73
     4
 74
     0
 42
0.000000001
 43
0.00000001
 40
3.16540730272003
 40
3.16540730272003
 40
3.16540730272003
 40
3.16540730272003
 40
3.472347603974721
 40
3.472347603974721
 40
3.472347603974721
 40
3.472347603974721
 10
33872.42433758209
 20
26492.21217603706
 30
0.0
 10
33872.44941098371
 20
26492.20532957573
 30
0.0
 10
33872.47204595106
 20
26492.1925612608
 30
0.0
 10
33872.49064471795
 20
26492.17546885842
 30
0.0
  0
SPLINE
  5
87
330
1F
100
AcDbEntity
  8
0
  6
Continuous
 62
     7
370
    25
100
AcDbSpline
210
0.0
220
0.0
230
1.0
 70
     8
 71
     3
 72
     8
 73
     4
 74
     0
 42
0.000000001
 43
0.00000001
 40
229.4556284323685
 40
229.4556284323685
 40
229.4556284323685
 40
229.4556284323685
 40
230.0
 40
230.0
 40
230.0
 40
230.0
 10
33872.49064473499
 20
26492.17546887696
 30
0.0
 10
33872.52364720435
 20
26492.14515637059
 30
0.0
 10
33872.5438774036
 20
26492.10131501591
 30
0.0
 10
33872.54266213661
 20
26492.05300815283
 30
0.0
  0
LINE
  5
88
330
1F
100
AcDbEntity
  8
0
  6
Continuous
 62
     7
370
    25
100
AcDbLine
 10
33872.5426621366
 20
26492.0530081528
 30
0.0
 11
33872.5426621366
 21
26400.0065335435
 31
0.0
  0
LINE
  5
89
330
1F
100
AcDbEntity
  8
0
  6
Continuous
 62
     7
370
    25
100
AcDbLine
 10
33872.5426621366
 20
26400.0065335435
 30
0.0
 11
34250.2282597929
 21
26400.0065335435
 31
0.0
  0
LINE
  5
8A
330
1F
100
AcDbEntity
  8
0
  6
Continuous
 62
     7
370
    25
100
AcDbLine
 10
34250.2282597929
 20
26400.0065335435
 30
0.0
 11
34250.2282597929
 21
26492.0530081528
 31
0.0
  0
SPLINE
  5
8B
330
1F
100
AcDbEntity
  8
0
  6
Continuous
 62
     7
370
    25
100
AcDbSpline
210
0.0
220
0.0
230
1.0
 70
     8
 71
     3
 72
     8
 73
     4
 74
     0
 42
0.000000001
 43
0.00000001
 40
1.0
 40
1.0
 40
1.0
 40
1.0
 40
2.0
 40
2.0
 40
2.0
 40
2.0
 10
34250.22825979286
 20
26492.05300815283
 30
0.0
 10
34250.22602737098
 20
26492.14174692236
 30
0.0
 10
34250.29597658973
 20
26492.21560287939
 30
0.0
 10
34250.38490139443
 20
26492.21783530127
 30
0.0
  0
LINE
  5
8C
330
1F
100
AcDbEntity
  8
0
  6
Continuous
 62
     7
370
    25
100
AcDbLine
 10
34250.3849013944
 20
26492.2178353013
 30
0.0
 11
34258.7970390897
 21
26492.4321478013
 31
0.0
  0
LINE
  5
8D
330
1F
100
AcDbEntity
  8
0
  6
Continuous
 62
     7
370
    25
100
AcDbLine
 10
34258.7970390897
 20
26492.4321478013
 30
0.0
 11
34267.2062002225
 21
26492.8070086411
 31
0.0
  0
LINE
  5
8E
330
1F
100
AcDbEntity
  8
0
  6
Continuous
 62
     7
370
    25
100
AcDbLine
 10
34267.2062002225
 20
26492.8070086411
 30
0.0
 11
34271.3841777616
 21
26493.0213211411
 31
0.0
  0
LINE
  5
8F
330
1F
100
AcDbEntity
  8
0
  6
Continuous
 62
     7
370
    25
100
AcDbLine
 10
34271.3841777616
 20
26493.0213211411
 30
0.0
 11
34275.5591787382
 21
26493.3424178208
 31
0.0
  0
LINE
  5
90
330
1F
100
AcDbEntity
  8
0
  6
Continuous
 62
     7
370
    25
100
AcDbLine
 10
34275.5591787382
 20
26493.3424178208
 30
0.0
 11
34283.9136455351
 21
26494.1994817856
 31
0.0
  0
LINE
  5
91
330
1F
100
AcDbEntity
  8
0
  6
Continuous
 62
     7
370
    25
100
AcDbLine
 10
34283.9136455351
 20
26494.1994817856
 30
0.0
 11
34288.0890185819
 21
26494.7347049302
 31
0.0
  0
LINE
  5
92
330
1F
100
AcDbEntity
  8
0
  6
Continuous
 62
     7
370
    25
100
AcDbLine
 10
34288.0890185819
 20
26494.7347049302
 30
0.0
 11
34292.2662519804
 21
26495.3236922349
 31
0.0
  0
LINE
  5
93
330
1F
100
AcDbEntity
  8
0
  6
Continuous
 62
     7
370
    25
100
AcDbLine
 10
34292.2662519804
 20
26495.3236922349
 30
0.0
 11
34300.5131904569
 21
26496.7163514145
 31
0.0
  0
LINE
  5
94
330
1F
100
AcDbEntity
  8
0
  6
Continuous
 62
     7
370
    25
100
AcDbLine
 10
34300.5131904569
 20
26496.7163514145
 30
0.0
 11
34304.6346133085
 21
26497.5192791489
 31
0.0
  0
LINE
  5
95
330
1F
100
AcDbEntity
  8
0
  6
Continuous
 62
     7
370
    25
100
AcDbLine
 10
34304.6346133085
 20
26497.5192791489
 30
0.0
 11
34308.7586406522
 21
26498.3761570786
 31
0.0
  0
LINE
  5
96
330
1F
100
AcDbEntity
  8
0
  6
Continuous
 62
     7
370
    25
100
AcDbLine
 10
34308.7586406522
 20
26498.3761570786
 30
0.0
 11
34316.9516289335
 21
26500.304225438
 31
0.0
  0
LINE
  5
97
330
1F
100
AcDbEntity
  8
0
  6
Continuous
 62
     7
370
    25
100
AcDbLine
 10
34316.9516289335
 20
26500.304225438
 30
0.0
 11
34321.0202178007
 21
26501.3748577622
 31
0.0
  0
LINE
  5
98
330
1F
100
AcDbEntity
  8
0
  6
Continuous
 62
     7
370
    25
100
AcDbLine
 10
34321.0202178007
 20
26501.3748577622
 30
0.0
 11
34325.0363447538
 21
26502.4992542466
 31
0.0
  0
LINE
  5
99
330
1F
100
AcDbEntity
  8
0
  6
Continuous
 62
     7
370
    25
100
AcDbLine
 10
34325.0363447538
 20
26502.4992542466
 30
0.0
 11
34329.1071660428
 21
26503.6776009263
 31
0.0
  0
LINE
  5
9A
330
1F
100
AcDbEntity
  8
0
  6
Continuous
 62
     7
370
    25
100
AcDbLine
 10
34329.1071660428
 20
26503.6776009263
 30
0.0
 11
34333.0671103788
 21
26504.961987645
 31
0.0
  0
LINE
  5
9B
330
1F
100
AcDbEntity
  8
0
  6
Continuous
 62
     7
370
    25
100
AcDbLine
 10
34333.0671103788
 20
26504.961987645
 30
0.0
 11
34337.0839814725
 21
26506.3012547349
 31
0.0
  0
LINE
  5
9C
330
1F
100
AcDbEntity
  8
0
  6
Continuous
 62
     7
370
    25
100
AcDbLine
 10
34337.0839814725
 20
26506.3012547349
 30
0.0
 11
34340.9907197538
 21
26507.7460037583
 31
0.0
  0
LINE
  5
9D
330
1F
100
AcDbEntity
  8
0
  6
Continuous
 62
     7
370
    25
100
AcDbLine
 10
34340.9907197538
 20
26507.7460037583
 30
0.0
 11
34344.9543847929
 21
26509.245819188
 31
0.0
  0
LINE
  5
9E
330
1F
100
AcDbEntity
  8
0
  6
Continuous
 62
     7
370
    25
100
AcDbLine
 10
34344.9543847929
 20
26509.245819188
 30
0.0
 11
34348.8090332304
 21
26510.798468602
 31
0.0
  0
LINE
  5
9F
330
1F
100
AcDbEntity
  8
0
  6
Continuous
 62
     7
370
    25
100
AcDbLine
 10
34348.8090332304
 20
26510.798468602
 30
0.0
 11
34352.7176318632
 21
26512.4582742661
 31
0.0
  0
LINE
  5
A0
330
1F
100
AcDbEntity
  8
0
  6
Continuous
 62
     7
370
    25
100
AcDbLine
 10
34352.7176318632
 20
26512.4582742661
 30
0.0
 11
34356.5187021757
 21
26514.17147202
 31
0.0
  0
LINE
  5
A1
330
1F
100
AcDbEntity
  8
0
  6
Continuous
 62
     7
370
    25
100
AcDbLine
 10
34356.5187021757
 20
26514.17147202
 30
0.0
 11
34360.3190283475
 21
26515.9914539536
 31
0.0
  0
LINE
  5
A2
330
1F
100
AcDbEntity
  8
0
  6
Continuous
 62
     7
370
    25
100
AcDbLine
 10
34360.3190283475
 20
26515.9914539536
 30
0.0
 11
34364.067636746
 21
26517.8657581528
 31
0.0
  0
LINE
  5
A3
330
1F
100
AcDbEntity
  8
0
  6
Continuous
 62
     7
370
    25
100
AcDbLine
 10
34364.067636746
 20
26517.8657581528
 30
0.0
 11
34367.7604345975
 21
26519.845916356
 31
0.0
  0
LINE
  5
A4
330
1F
100
AcDbEntity
  8
0
  6
Continuous
 62
     7
370
    25
100
AcDbLine
 10
34367.7604345975
 20
26519.845916356
 30
0.0
 11
34371.4562090116
 21
26521.8813270005
 31
0.0
  0
LINE
  5
A5
330
1F
100
AcDbEntity
  8
0
  6
Continuous
 62
     7
370
    25
100
AcDbLine
 10
34371.4562090116
 20
26521.8813270005
 30
0.0
 11
34375.0411064725
 21
26524.0216614731
 31
0.0
  0
LINE
  5
A6
330
1F
100
AcDbEntity
  8
0
  6
Continuous
 62
     7
370
    25
100
AcDbLine
 10
34375.0411064725
 20
26524.0216614731
 30
0.0
 11
34378.6293525663
 21
26526.2174344224
 31
0.0
  0
LINE
  5
A7
330
1F
100
AcDbEntity
  8
0
  6
Continuous
 62
     7
370
    25
100
AcDbLine
 10
34378.6293525663
 20
26526.2174344224
 30
0.0
 11
34382.1614160429
 21
26528.5190613755
 31
0.0
  0
LINE
  5
A8
330
1F
100
AcDbEntity
  8
0
  6
Continuous
 62
     7
370
    25
100
AcDbLine
 10
34382.1614160429
 20
26528.5190613755
 30
0.0
 11
34385.6421338163
 21
26530.8750105942
 31
0.0
  0
LINE
  5
A9
330
1F
100
AcDbEntity
  8
0
  6
Continuous
 62
     7
370
    25
100
AcDbLine
 10
34385.6421338163
 20
26530.8750105942
 30
0.0
 11
34389.0127187772
 21
26533.3364417466
 31
0.0
  0
LINE
  5
AA
330
1F
100
AcDbEntity
  8
0
  6
Continuous
 62
     7
370
    25
100
AcDbLine
 10
34389.0127187772
 20
26533.3364417466
 30
0.0
 11
34392.3873965116
 21
26535.8536834458
 31
0.0
  0
LINE
  5
AB
330
1F
100
AcDbEntity
  8
0
  6
Continuous
 62
     7
370
    25
100
AcDbLine
 10
34392.3873965116
 20
26535.8536834458
 30
0.0
 11
34395.6508252225
 21
26538.475662938
 31
0.0
  0
LINE
  5
AC
330
1F
100
AcDbEntity
  8
0
  6
Continuous
 62
     7
370
    25
100
AcDbLine
 10
34395.6508252225
 20
26538.475662938
 30
0.0
 11
34398.9179746366
 21
26541.153452977
 31
0.0
  0
LINE
  5
AD
330
1F
100
AcDbEntity
  8
0
  6
Continuous
 62
     7
370
    25
100
AcDbLine
 10
34398.9179746366
 20
26541.153452977
 30
0.0
 11
34402.0746191679
 21
26543.9359808091
 31
0.0
  0
LINE
  5
AE
330
1F
100
AcDbEntity
  8
0
  6
Continuous
 62
     7
370
    25
100
AcDbLine
 10
34402.0746191679
 20
26543.9359808091
 30
0.0
 11
34408.1788047147
 21
26549.718697606
 31
0.0
  0
LINE
  5
AF
330
1F
100
AcDbEntity
  8
0
  6
Continuous
 62
     7
370
    25
100
AcDbLine
 10
34408.1788047147
 20
26549.718697606
 30
0.0
 11
34413.9592890897
 21
26555.820650731
 31
0.0
  0
LINE
  5
B0
330
1F
100
AcDbEntity
  8
0
  6
Continuous
 62
     7
370
    25
100
AcDbLine
 10
34413.9592890897
 20
26555.820650731
 30
0.0
 11
34416.7416308866
 21
26558.9776673325
 31
0.0
  0
LINE
  5
B1
330
1F
100
AcDbEntity
  8
0
  6
Continuous
 62
     7
370
    25
100
AcDbLine
 10
34416.7416308866
 20
26558.9776673325
 30
0.0
 11
34419.4168164335
 21
26562.2416541489
 31
0.0
  0
LINE
  5
B2
330
1F
100
AcDbEntity
  8
0
  6
Continuous
 62
     7
370
    25
100
AcDbLine
 10
34419.4168164335
 20
26562.2416541489
 30
0.0
 11
34421.9863340116
 21
26565.5075013169
 31
0.0
  0
LINE
  5
B3
330
1F
100
AcDbEntity
  8
0
  6
Continuous
 62
     7
370
    25
100
AcDbLine
 10
34421.9863340116
 20
26565.5075013169
 30
0.0
 11
34424.5022734647
 21
26568.8797605942
 31
0.0
  0
LINE
  5
B4
330
1F
100
AcDbEntity
  8
0
  6
Continuous
 62
     7
370
    25
100
AcDbLine
 10
34424.5022734647
 20
26568.8797605942
 30
0.0
 11
34426.9653789335
 21
26572.3065281724
 31
0.0
  0
LINE
  5
B5
330
1F
100
AcDbEntity
  8
0
  6
Continuous
 62
     7
370
    25
100
AcDbLine
 10
34426.9653789335
 20
26572.3065281724
 30
0.0
 11
34429.265145535
 21
26575.8369173325
 31
0.0
  0
LINE
  5
B6
330
1F
100
AcDbEntity
  8
0
  6
Continuous
 62
     7
370
    25
100
AcDbLine
 10
34429.265145535
 20
26575.8369173325
 30
0.0
 11
34431.5146826444
 21
26579.3715853013
 31
0.0
  0
LINE
  5
B7
330
1F
100
AcDbEntity
  8
0
  6
Continuous
 62
     7
370
    25
100
AcDbLine
 10
34431.5146826444
 20
26579.3715853013
 30
0.0
 11
34433.6005088163
 21
26583.0087586411
 31
0.0
  0
LINE
  5
B8
330
1F
100
AcDbEntity
  8
0
  6
Continuous
 62
     7
370
    25
100
AcDbLine
 10
34433.6005088163
 20
26583.0087586411
 30
0.0
 11
34435.6357334257
 21
26586.650768895
 31
0.0
  0
LINE
  5
B9
330
1F
100
AcDbEntity
  8
0
  6
Continuous
 62
     7
370
    25
100
AcDbLine
 10
34435.6357334257
 20
26586.650768895
 30
0.0
 11
34437.6162636991
 21
26590.3980750474
 31
0.0
  0
LINE
  5
BA
330
1F
100
AcDbEntity
  8
0
  6
Continuous
 62
     7
370
    25
100
AcDbLine
 10
34437.6162636991
 20
26590.3980750474
 30
0.0
 11
34439.4353154569
 21
26594.1438929185
 31
0.0
  0
LINE
  5
BB
330
1F
100
AcDbEntity
  8
0
  6
Continuous
 62
     7
370
    25
100
AcDbLine
 10
34439.4353154569
 20
26594.1438929185
 30
0.0
 11
34441.2019053007
 21
26597.9981692856
 31
0.0
  0
LINE
  5
BC
330
1F
100
AcDbEntity
  8
0
  6
Continuous
 62
     7
370
    25
100
AcDbLine
 10
34441.2019053007
 20
26597.9981692856
 30
0.0
 11
34442.8613388944
 21
26601.852631688
 31
0.0
  0
LINE
  5
BD
330
1F
100
AcDbEntity
  8
0
  6
Continuous
 62
     7
370
    25
100
AcDbLine
 10
34442.8613388944
 20
26601.852631688
 30
0.0
 11
34444.4132441679
 21
26605.7597420396
 31
0.0
  0
LINE
  5
BE
330
1F
100
AcDbEntity
  8
0
  6
Continuous
 62
     7
370
    25
100
AcDbLine
 10
34444.4132441679
 20
26605.7597420396
 30
0.0
 11
34445.8591094022
 21
26609.6674104966
 31
0.0
  0
LINE
  5
BF
330
1F
100
AcDbEntity
  8
0
  6
Continuous
 62
     7
370
    25
100
AcDbLine
 10
34445.8591094022
 20
26609.6674104966
 30
0.0
 11
34447.1967021757
 21
26613.6809329575
 31
0.0
  0
LINE
  5
C0
330
1F
100
AcDbEntity
  8
0
  6
Continuous
 62
     7
370
    25
100
AcDbLine
 10
34447.1967021757
 20
26613.6809329575
 30
0.0
 11
34448.3735605741
 21
26617.693897313
 31
0.0
  0
LINE
  5
C1
330
1F
100
AcDbEntity
  8
0
  6
Continuous
 62
     7
370
    25
100
AcDbLine
 10
34448.3735605741
 20
26617.693897313
 30
0.0
 11
34449.4983291288
 21
26621.7636023911
 31
0.0
  0
LINE
  5
C2
330
1F
100
AcDbEntity
  8
0
  6
Continuous
 62
     7
370
    25
100
AcDbLine
 10
34449.4983291288
 20
26621.7636023911
 30
0.0
 11
34450.4612470975
 21
26625.8299588364
 31
0.0
  0
LINE
  5
C3
330
1F
100
AcDbEntity
  8
0
  6
Continuous
 62
     7
370
    25
100
AcDbLine
 10
34450.4612470975
 20
26625.8299588364
 30
0.0
 11
34451.3173808866
 21
26629.9511956528
 31
0.0
  0
LINE
  5
C4
330
1F
100
AcDbEntity
  8
0
  6
Continuous
 62
     7
370
    25
100
AcDbLine
 10
34451.3173808866
 20
26629.9511956528
 30
0.0
 11
34452.1206806913
 21
26634.0748509263
 31
0.0
  0
LINE
  5
C5
330
1F
100
AcDbEntity
  8
0
  6
Continuous
 62
     7
370
    25
100
AcDbLine
 10
34452.1206806913
 20
26634.0748509263
 30
0.0
 11
34452.870402371
 21
26638.1986922349
 31
0.0
  0
LINE
  5
C6
330
1F
100
AcDbEntity
  8
0
  6
Continuous
 62
     7
370
    25
100
AcDbLine
 10
34452.870402371
 20
26638.1986922349
 30
0.0
 11
34453.4590176054
 21
26642.3182547349
 31
0.0
  0
LINE
  5
C7
330
1F
100
AcDbEntity
  8
0
  6
Continuous
 62
     7
370
    25
100
AcDbLine
 10
34453.4590176054
 20
26642.3182547349
 30
0.0
 11
34453.9947988554
 21
26646.4953020981
 31
0.0
  0
LINE
  5
C8
330
1F
100
AcDbEntity
  8
0
  6
Continuous
 62
     7
370
    25
100
AcDbLine
 10
34453.9947988554
 20
26646.4953020981
 30
0.0
 11
34454.47662991
 21
26650.6723494614
 31
0.0
  0
LINE
  5
C9
330
1F
100
AcDbEntity
  8
0
  6
Continuous
 62
     7
370
    25
100
AcDbLine
 10
34454.47662991
 20
26650.6723494614
 30
0.0
 11
34454.7973545194
 21
26654.8988821763
 31
0.0
  0
LINE
  5
CA
330
1F
100
AcDbEntity
  8
0
  6
Continuous
 62
     7
370
    25
100
AcDbLine
 10
34454.7973545194
 20
26654.8988821763
 30
0.0
 11
34455.0116670194
 21
26659.1278333481
 31
0.0
  0
LINE
  5
CB
330
1F
100
AcDbEntity
  8
0
  6
Continuous
 62
     7
370
    25
100
AcDbLine
 10
34455.0116670194
 20
26659.1278333481
 30
0.0
 11
34455.0112949491
 21
26663.3525057114
 31
0.0
  0
LINE
  5
CC
330
1F
100
AcDbEntity
  8
0
  6
Continuous
 62
     7
370
    25
100
AcDbLine
 10
34455.0112949491
 20
26663.3525057114
 30
0.0
 11
34454.9577168241
 21
26665.437959813
 31
0.0
  0
LINE
  5
CD
330
1F
100
AcDbEntity
  8
0
  6
Continuous
 62
     7
370
    25
100
AcDbLine
 10
34454.9577168241
 20
26665.437959813
 30
0.0
 11
34454.8509326444
 21
26667.5235999497
 31
0.0
  0
LINE
  5
CE
330
1F
100
AcDbEntity
  8
0
  6
Continuous
 62
     7
370
    25
100
AcDbLine
 10
34454.8509326444
 20
26667.5235999497
 30
0.0
 11
34454.6369922147
 21
26669.6049612778
 31
0.0
  0
LINE
  5
CF
330
1F
100
AcDbEntity
  8
0
  6
Continuous
 62
     7
370
    25
100
AcDbLine
 10
34454.6369922147
 20
26669.6049612778
 30
0.0
 11
34454.3166396757
 21
26671.6865086411
 31
0.0
  0
LINE
  5
D0
330
1F
100
AcDbEntity
  8
0
  6
Continuous
 62
     7
370
    25
100
AcDbLine
 10
34454.3166396757
 20
26671.6865086411
 30
0.0
 11
34453.9423369413
 21
26673.7721487778
 31
0.0
  0
LINE
  5
D1
330
1F
100
AcDbEntity
  8
0
  6
Continuous
 62
     7
370
    25
100
AcDbLine
 10
34453.9423369413
 20
26673.7721487778
 30
0.0
 11
34453.4091601835
 21
26675.7956531724
 31
0.0
  0
LINE
  5
D2
330
1F
100
AcDbEntity
  8
0
  6
Continuous
 62
     7
370
    25
100
AcDbLine
 10
34453.4091601835
 20
26675.7956531724
 30
0.0
 11
34452.8201728788
 21
26677.8825955552
 31
0.0
  0
LINE
  5
D3
330
1F
100
AcDbEntity
  8
0
  6
Continuous
 62
     7
370
    25
100
AcDbLine
 10
34452.8201728788
 20
26677.8825955552
 30
0.0
 11
34452.1266338163
 21
26679.8554983872
 31
0.0
  0
LINE
  5
D4
330
1F
100
AcDbEntity
  8
0
  6
Continuous
 62
     7
370
    25
100
AcDbLine
 10
34452.1266338163
 20
26679.8554983872
 30
0.0
 11
34451.2734765897
 21
26681.8272850083
 31
0.0
  0
LINE
  5
D5
330
1F
100
AcDbEntity
  8
0
  6
Continuous
 62
     7
370
    25
100
AcDbLine
 10
34451.2734765897
 20
26681.8272850083
 30
0.0
 11
34450.3131631132
 21
26683.7480979966
 31
0.0
  0
LINE
  5
D6
330
1F
100
AcDbEntity
  8
0
  6
Continuous
 62
     7
370
    25
100
AcDbLine
 10
34450.3131631132
 20
26683.7480979966
 30
0.0
 11
34449.2456933866
 21
26685.615518895
 31
0.0
  0
LINE
  5
D7
330
1F
100
AcDbEntity
  8
0
  6
Continuous
 62
     7
370
    25
100
AcDbLine
 10
34449.2456933866
 20
26685.615518895
 30
0.0
 11
34448.0714394804
 21
26687.4297337388
 31
0.0
  0
LINE
  5
D8
330
1F
100
AcDbEntity
  8
0
  6
Continuous
 62
     7
370
    25
100
AcDbLine
 10
34448.0714394804
 20
26687.4297337388
 30
0.0
 11
34446.7918896757
 21
26689.1353040513
 31
0.0
  0
LINE
  5
D9
330
1F
100
AcDbEntity
  8
0
  6
Continuous
 62
     7
370
    25
100
AcDbLine
 10
34446.7918896757
 20
26689.1353040513
 30
0.0
 11
34445.4074160429
 21
26690.678093602
 31
0.0
  0
LINE
  5
DA
330
1F
100
AcDbEntity
  8
0
  6
Continuous
 62
     7
370
    25
100
AcDbLine
 10
34445.4074160429
 20
26690.678093602
 30
0.0
 11
34443.9131816679
 21
26692.1719559067
 31
0.0
  0
LINE
  5
DB
330
1F
100
AcDbEntity
  8
0
  6
Continuous
 62
     7
370
    25
100
AcDbLine
 10
34443.9131816679
 20
26692.1719559067
 30
0.0
 11
34442.3166279569
 21
26693.5015491685
 31
0.0
  0
LINE
  5
DC
330
1F
100
AcDbEntity
  8
0
  6
Continuous
 62
     7
370
    25
100
AcDbLine
 10
34442.3166279569
 20
26693.5015491685
 30
0.0
 11
34440.5623164335
 21
26694.67022202
 31
0.0
  0
LINE
  5
DD
330
1F
100
AcDbEntity
  8
0
  6
Continuous
 62
     7
370
    25
100
AcDbLine
 10
34440.5623164335
 20
26694.67022202
 30
0.0
 11
34438.7514502225
 21
26695.6816951645
 31
0.0
  0
LINE
  5
DE
330
1F
100
AcDbEntity
  8
0
  6
Continuous
 62
     7
370
    25
100
AcDbLine
 10
34438.7514502225
 20
26695.6816951645
 30
0.0
 11
34436.8844013944
 21
26696.588244481
 31
0.0
  0
LINE
  5
DF
330
1F
100
AcDbEntity
  8
0
  6
Continuous
 62
     7
370
    25
100
AcDbLine
 10
34436.8844013944
 20
26696.588244481
 30
0.0
 11
34434.9154053007
 21
26697.3325711411
 31
0.0
  0
LINE
  5
E0
330
1F
100
AcDbEntity
  8
0
  6
Continuous
 62
     7
370
    25
100
AcDbLine
 10
34434.9154053007
 20
26697.3325711411
 30
0.0
 11
34432.8879941679
 21
26697.9725320786
 31
0.0
  0
LINE
  5
E1
330
1F
100
AcDbEntity
  8
0
  6
Continuous
 62
     7
370
    25
100
AcDbLine
 10
34432.8879941679
 20
26697.9725320786
 30
0.0
 11
34430.8590947538
 21
26698.5062669419
 31
0.0
  0
LINE
  5
E2
330
1F
100
AcDbEntity
  8
0
  6
Continuous
 62
     7
370
    25
100
AcDbLine
 10
34430.8590947538
 20
26698.5062669419
 30
0.0
 11
34428.7743847929
 21
26698.987353856
 31
0.0
  0
LINE
  5
E3
330
1F
100
AcDbEntity
  8
0
  6
Continuous
 62
     7
370
    25
100
AcDbLine
 10
34428.7743847929
 20
26698.987353856
 30
0.0
 11
34424.5536191679
 21
26699.6278728989
 31
0.0
  0
LINE
  5
E4
330
1F
100
AcDbEntity
  8
0
  6
Continuous
 62
     7
370
    25
100
AcDbLine
 10
34424.5536191679
 20
26699.6278728989
 30
0.0
 11
34422.4715136991
 21
26699.8412552231
 31
0.0
  0
LINE
  5
E5
330
1F
100
AcDbEntity
  8
0
  6
Continuous
 62
     7
370
    25
100
AcDbLine
 10
34422.4715136991
 20
26699.8412552231
 30
0.0
 11
34418.300605496
 21
26700.0550096177
 31
0.0
  0
LINE
  5
E6
330
1F
100
AcDbEntity
  8
0
  6
Continuous
 62
     7
370
    25
100
AcDbLine
 10
34418.300605496
 20
26700.0550096177
 30
0.0
 11
34414.1296972929
 21
26700.0548235825
 31
0.0
  0
LINE
  5
E7
330
1F
100
AcDbEntity
  8
0
  6
Continuous
 62
     7
370
    25
100
AcDbLine
 10
34414.1296972929
 20
26700.0548235825
 30
0.0
 11
34409.9026064725
 21
26699.8942752427
 31
0.0
  0
LINE
  5
E8
330
1F
100
AcDbEntity
  8
0
  6
Continuous
 62
     7
370
    25
100
AcDbLine
 10
34409.9026064725
 20
26699.8942752427
 30
0.0
 11
34405.7279775663
 21
26699.6265706528
 31
0.0
  0
LINE
  5
E9
330
1F
100
AcDbEntity
  8
0
  6
Continuous
 62
     7
370
    25
100
AcDbLine
 10
34405.7279775663
 20
26699.6265706528
 30
0.0
 11
34401.5526045194
 21
26699.251709813
 31
0.0
  0
LINE
  5
EA
330
1F
100
AcDbEntity
  8
0
  6
Continuous
 62
     7
370
    25
100
AcDbLine
 10
34401.5526045194
 20
26699.251709813
 30
0.0
 11
34393.2003701444
 21
26698.1808914536
 31
0.0
  0
LINE
  5
EB
330
1F
100
AcDbEntity
  8
0
  6
Continuous
 62
     7
370
    25
100
AcDbLine
 10
34393.2003701444
 20
26698.1808914536
 30
0.0
 11
34389.0789472929
 21
26697.5383260239
 31
0.0
  0
LINE
  5
EC
330
1F
100
AcDbEntity
  8
0
  6
Continuous
 62
     7
370
    25
100
AcDbLine
 10
34389.0789472929
 20
26697.5383260239
 30
0.0
 11
34380.7754541288
 21
26696.1456668442
 31
0.0
  0
LINE
  5
ED
330
1F
100
AcDbEntity
  8
0
  6
Continuous
 62
     7
370
    25
100
AcDbLine
 10
34380.7754541288
 20
26696.1456668442
 30
0.0
 11
34372.5277715116
 21
26694.5924593247
 31
0.0
  0
LINE
  5
EE
330
1F
100
AcDbEntity
  8
0
  6
Continuous
 62
     7
370
    25
100
AcDbLine
 10
34372.5277715116
 20
26694.5924593247
 30
0.0
 11
34356.0268252225
 21
26691.2708016099
 31
0.0
  0
LINE
  5
EF
330
1F
100
AcDbEntity
  8
0
  6
Continuous
 62
     7
370
    25
100
AcDbLine
 10
34356.0268252225
 20
26691.2708016099
 30
0.0
 11
34339.5783408475
 21
26687.89556577
 31
0.0
  0
LINE
  5
F0
330
1F
100
AcDbEntity
  8
0
  6
Continuous
 62
     7
370
    25
100
AcDbLine
 10
34339.5783408475
 20
26687.89556577
 30
0.0
 11
34323.1283681913
 21
26684.6269280747
 31
0.0
  0
LINE
  5
F1
330
1F
100
AcDbEntity
  8
0
  6
Continuous
 62
     7
370
    25
100
AcDbLine
 10
34323.1283681913
 20
26684.6269280747
 30
0.0
 11
34314.8215263944
 21
26683.0726043442
 31
0.0
  0
LINE
  5
F2
330
1F
100
AcDbEntity
  8
0
  6
Continuous
 62
     7
370
    25
100
AcDbLine
 10
34314.8215263944
 20
26683.0726043442
 30
0.0
 11
34306.5686347929
 21
26681.6256228989
 31
0.0
  0
LINE
  5
F3
330
1F
100
AcDbEntity
  8
0
  6
Continuous
 62
     7
370
    25
100
AcDbLine
 10
34306.5686347929
 20
26681.6256228989
 30
0.0
 11
34298.2614209257
 21
26680.2857977036
 31
0.0
  0
LINE
  5
F4
330
1F
100
AcDbEntity
  8
0
  6
Continuous
 62
     7
370
    25
100
AcDbLine
 10
34298.2614209257
 20
26680.2857977036
 30
0.0
 11
34289.9545791288
 21
26679.0531287583
 31
0.0
  0
LINE
  5
F5
330
1F
100
AcDbEntity
  8
0
  6
Continuous
 62
     7
370
    25
100
AcDbLine
 10
34289.9545791288
 20
26679.0531287583
 30
0.0
 11
34281.646621121
 21
26677.981194188
 31
0.0
  0
LINE
  5
F6
330
1F
100
AcDbEntity
  8
0
  6
Continuous
 62
     7
370
    25
100
AcDbLine
 10
34281.646621121
 20
26677.981194188
 30
0.0
 11
34273.2869453397
 21
26676.9628377427
 31
0.0
  0
LINE
  5
F7
330
1F
100
AcDbEntity
  8
0
  6
Continuous
 62
     7
370
    25
100
AcDbLine
 10
34273.2869453397
 20
26676.9628377427
 30
0.0
 11
34264.924292996
 21
26676.1587937974
 31
0.0
  0
LINE
  5
F8
330
1F
100
AcDbEntity
  8
0
  6
Continuous
 62
     7
370
    25
100
AcDbLine
 10
34264.924292996
 20
26676.1587937974
 30
0.0
 11
34256.5091787382
 21
26675.5156702622
 31
0.0
  0
LINE
  5
F9
330
1F
100
AcDbEntity
  8
0
  6
Continuous
 62
     7
370
    25
100
AcDbLine
 10
34256.5091787382
 20
26675.5156702622
 30
0.0
 11
34248.1468984647
 21
26675.0866731919
 31
0.0
  0
LINE
  5
FA
330
1F
100
AcDbEntity
  8
0
  6
Continuous
 62
     7
370
    25
100
AcDbLine
 10
34248.1468984647
 20
26675.0866731919
 30
0.0
 11
34239.7317842069
 21
26674.8185965317
 31
0.0
  0
LINE
  5
FB
330
1F
100
AcDbEntity
  8
0
  6
Continuous
 62
     7
370
    25
100
AcDbLine
 10
34239.7317842069
 20
26674.8185965317
 30
0.0
 11
33883.0497692222
 21
26674.8185965317
 31
0.0
  0
SPLINE
  5
FC
330
1F
100
AcDbEntity
  8
0
  6
Continuous
 62
     7
370
    25
100
AcDbSpline
210
0.0
220
0.0
230
1.0
 70
     8
 71
     3
 72
     8
 73
     4
 74
     0
 42
0.000000001
 43
0.00000001
 40
115.9586581901707
 40
115.9586581901707
 40
115.9586581901707
 40
115.9586581901707
 40
116.0
 40
116.0
 40
116.0
 40
116.0
 10
33883.04976922223
 20
26674.81859653173
 30
0.0
 10
33883.04624403628
 20
26674.81847474156
 30
0.0
 10
33883.04269866947
 20
26674.81847347525
 30
0.0
 10
33883.03913772255
 20
26674.81859653173
 30
0.0
  0
LINE
  5
FD
330
1F
100
AcDbEntity
  8
0
  6
Continuous
 62
     7
370
    25
100
AcDbLine
 10
33883.0391377225
 20
26674.8185965317
 30
0.0
 11
33874.6805781522
 21
26675.0864871567
 31
0.0
  0
LINE
  5
FE
330
1F
100
AcDbEntity
  8
0
  6
Continuous
 62
     7
370
    25
100
AcDbLine
 10
33874.6805781522
 20
26675.0864871567
 30
0.0
 11
33866.2654638944
 21
26675.5152981919
 31
0.0
  0
LINE
  5
FF
330
1F
100
AcDbEntity
  8
0
  6
Continuous
 62
     7
370
    25
100
AcDbLine
 10
33866.2654638944
 20
26675.5152981919
 30
0.0
 11
33857.9029975858
 21
26676.1586077622
 31
0.0
  0
LINE
  5
100
330
1F
100
AcDbEntity
  8
0
  6
Continuous
 62
     7
370
    25
100
AcDbLine
 10
33857.9029975858
 20
26676.1586077622
 30
0.0
 11
33849.5412754179
 21
26676.9624656724
 31
0.0
  0
LINE
  5
101
330
1F
100
AcDbEntity
  8
0
  6
Continuous
 62
     7
370
    25
100
AcDbLine
 10
33849.5412754179
 20
26676.9624656724
 30
0.0
 11
33841.1789951444
 21
26677.9810081528
 31
0.0
  0
LINE
  5
102
330
1F
100
AcDbEntity
  8
0
  6
Continuous
 62
     7
370
    25
100
AcDbLine
 10
33841.1789951444
 20
26677.9810081528
 30
0.0
 11
33832.8193193632
 21
26679.052756688
 31
0.0
  0
LINE
  5
103
330
1F
100
AcDbEntity
  8
0
  6
Continuous
 62
     7
370
    25
100
AcDbLine
 10
33832.8193193632
 20
26679.052756688
 30
0.0
 11
33824.5111753202
 21
26680.2854256333
 31
0.0
  0
LINE
  5
104
330
1F
100
AcDbEntity
  8
0
  6
Continuous
 62
     7
370
    25
100
AcDbLine
 10
33824.5111753202
 20
26680.2854256333
 30
0.0
 11
33816.2043335233
 21
26681.6252508286
 31
0.0
  0
LINE
  5
105
330
1F
100
AcDbEntity
  8
0
  6
Continuous
 62
     7
370
    25
100
AcDbLine
 10
33816.2043335233
 20
26681.6252508286
 30
0.0
 11
33807.9508838163
 21
26683.0722322739
 31
0.0
  0
LINE
  5
106
330
1F
100
AcDbEntity
  8
0
  6
Continuous
 62
     7
370
    25
100
AcDbLine
 10
33807.9508838163
 20
26683.0722322739
 30
0.0
 11
33799.6976201444
 21
26684.6265560044
 31
0.0
  0
LINE
  5
107
330
1F
100
AcDbEntity
  8
0
  6
Continuous
 62
     7
370
    25
100
AcDbLine
 10
33799.6976201444
 20
26684.6265560044
 30
0.0
 11
33783.1933252225
 21
26687.8951936997
 31
0.0
  0
LINE
  5
108
330
1F
100
AcDbEntity
  8
0
  6
Continuous
 62
     7
370
    25
100
AcDbLine
 10
33783.1933252225
 20
26687.8951936997
 30
0.0
 11
33766.7431665311
 21
26691.270987645
 31
0.0
  0
LINE
  5
109
330
1F
100
AcDbEntity
  8
0
  6
Continuous
 62
     7
370
    25
100
AcDbLine
 10
33766.7431665311
 20
26691.270987645
 30
0.0
 11
33750.2412900663
 21
26694.592831395
 31
0.0
  0
LINE
  5
10A
330
1F
100
AcDbEntity
  8
0
  6
Continuous
 62
     7
370
    25
100
AcDbLine
 10
33750.2412900663
 20
26694.592831395
 30
0.0
 11
33741.9919331327
 21
26696.1462249497
 31
0.0
  0
LINE
  5
10B
330
1F
100
AcDbEntity
  8
0
  6
Continuous
 62
     7
370
    25
100
AcDbLine
 10
33741.9919331327
 20
26696.1462249497
 30
0.0
 11
33733.7435063749
 21
26697.5386980942
 31
0.0
  0
LINE
  5
10C
330
1F
100
AcDbEntity
  8
0
  6
Continuous
 62
     7
370
    25
100
AcDbLine
 10
33733.7435063749
 20
26697.5386980942
 30
0.0
 11
33729.5666450468
 21
26698.1814495591
 31
0.0
  0
LINE
  5
10D
330
1F
100
AcDbEntity
  8
0
  6
Continuous
 62
     7
370
    25
100
AcDbLine
 10
33729.5666450468
 20
26698.1814495591
 30
0.0
 11
33721.2121782499
 21
26699.2524539536
 31
0.0
  0
LINE
  5
10E
330
1F
100
AcDbEntity
  8
0
  6
Continuous
 62
     7
370
    25
100
AcDbLine
 10
33721.2121782499
 20
26699.2524539536
 30
0.0
 11
33717.0390376249
 21
26699.626756688
 31
0.0
  0
LINE
  5
10F
330
1F
100
AcDbEntity
  8
0
  6
Continuous
 62
     7
370
    25
100
AcDbLine
 10
33717.0390376249
 20
26699.626756688
 30
0.0
 11
33712.8638506132
 21
26699.8944612778
 31
0.0
  0
LINE
  5
110
330
1F
100
AcDbEntity
  8
0
  6
Continuous
 62
     7
370
    25
100
AcDbLine
 10
33712.8638506132
 20
26699.8944612778
 30
0.0
 11
33708.6886636015
 21
26700.0550096177
 31
0.0
  0
LINE
  5
111
330
1F
100
AcDbEntity
  8
0
  6
Continuous
 62
     7
370
    25
100
AcDbLine
 10
33708.6886636015
 20
26700.0550096177
 30
0.0
 11
33704.4619448514
 21
26700.0548235825
 31
0.0
  0
LINE
  5
112
330
1F
100
AcDbEntity
  8
0
  6
Continuous
 62
     7
370
    25
100
AcDbLine
 10
33704.4619448514
 20
26700.0548235825
 30
0.0
 11
33700.2910366483
 21
26699.8406971177
 31
0.0
  0
LINE
  5
113
330
1F
100
AcDbEntity
  8
0
  6
Continuous
 62
     7
370
    25
100
AcDbLine
 10
33700.2910366483
 20
26699.8406971177
 30
0.0
 11
33698.2094892851
 21
26699.6269427231
 31
0.0
  0
LINE
  5
114
330
1F
100
AcDbEntity
  8
0
  6
Continuous
 62
     7
370
    25
100
AcDbLine
 10
33698.2094892851
 20
26699.6269427231
 30
0.0
 11
33694.0382090116
 21
26698.9851214341
 31
0.0
  0
LINE
  5
115
330
1F
100
AcDbEntity
  8
0
  6
Continuous
 62
     7
370
    25
100
AcDbLine
 10
33694.0382090116
 20
26698.9851214341
 30
0.0
 11
33691.9603823515
 21
26698.505150731
 31
0.0
  0
LINE
  5
116
330
1F
100
AcDbEntity
  8
0
  6
Continuous
 62
     7
370
    25
100
AcDbLine
 10
33691.9603823515
 20
26698.505150731
 30
0.0
 11
33689.8747422147
 21
26697.9701136216
 31
0.0
  0
LINE
  5
117
330
1F
100
AcDbEntity
  8
0
  6
Continuous
 62
     7
370
    25
100
AcDbLine
 10
33689.8747422147
 20
26697.9701136216
 30
0.0
 11
33687.8469590116
 21
26697.3295945786
 31
0.0
  0
LINE
  5
118
330
1F
100
AcDbEntity
  8
0
  6
Continuous
 62
     7
370
    25
100
AcDbLine
 10
33687.8469590116
 20
26697.3295945786
 30
0.0
 11
33685.9280063749
 21
26696.5830354966
 31
0.0
  0
LINE
  5
119
330
1F
100
AcDbEntity
  8
0
  6
Continuous
 62
     7
370
    25
100
AcDbLine
 10
33685.9280063749
 20
26696.5830354966
 30
0.0
 11
33684.0096118436
 21
26695.6766722153
 31
0.0
  0
LINE
  5
11A
330
1F
100
AcDbEntity
  8
0
  6
Continuous
 62
     7
370
    25
100
AcDbLine
 10
33684.0096118436
 20
26695.6766722153
 30
0.0
 11
33682.1974433866
 21
26694.6637107895
 31
0.0
  0
LINE
  5
11B
330
1F
100
AcDbEntity
  8
0
  6
Continuous
 62
     7
370
    25
100
AcDbLine
 10
33682.1974433866
 20
26694.6637107895
 30
0.0
 11
33680.4957798124
 21
26693.492619481
 31
0.0
  0
LINE
  5
11C
330
1F
100
AcDbEntity
  8
0
  6
Continuous
 62
     7
370
    25
100
AcDbLine
 10
33680.4957798124
 20
26693.492619481
 30
0.0
 11
33678.8443457304
 21
26692.1604217271
 31
0.0
  0
LINE
  5
11D
330
1F
100
AcDbEntity
  8
0
  6
Continuous
 62
     7
370
    25
100
AcDbLine
 10
33678.8443457304
 20
26692.1604217271
 30
0.0
 11
33677.3569946561
 21
26690.6717684067
 31
0.0
  0
LINE
  5
11E
330
1F
100
AcDbEntity
  8
0
  6
Continuous
 62
     7
370
    25
100
AcDbLine
 10
33677.3569946561
 20
26690.6717684067
 30
0.0
 11
33675.9699165311
 21
26689.124327977
 31
0.0
  0
LINE
  5
11F
330
1F
100
AcDbEntity
  8
0
  6
Continuous
 62
     7
370
    25
100
AcDbLine
 10
33675.9699165311
 20
26689.124327977
 30
0.0
 11
33674.6929712186
 21
26687.4206180161
 31
0.0
  0
LINE
  5
120
330
1F
100
AcDbEntity
  8
0
  6
Continuous
 62
     7
370
    25
100
AcDbLine
 10
33674.6929712186
 20
26687.4206180161
 30
0.0
 11
33673.5203916288
 21
26685.6080774888
 31
0.0
  0
LINE
  5
121
330
1F
100
AcDbEntity
  8
0
  6
Continuous
 62
     7
370
    25
100
AcDbLine
 10
33673.5203916288
 20
26685.6080774888
 30
0.0
 11
33672.4534800077
 21
26683.7400984849
 31
0.0
  0
LINE
  5
122
330
1F
100
AcDbEntity
  8
0
  6
Continuous
 62
     7
370
    25
100
AcDbLine
 10
33672.4534800077
 20
26683.7400984849
 30
0.0
 11
33671.4933525663
 21
26681.8192854966
 31
0.0
  0
LINE
  5
123
330
1F
100
AcDbEntity
  8
0
  6
Continuous
 62
     7
370
    25
100
AcDbLine
 10
33671.4933525663
 20
26681.8192854966
 30
0.0
 11
33670.6948896757
 21
26679.8482430161
 31
0.0
  0
LINE
  5
124
330
1F
100
AcDbEntity
  8
0
  6
Continuous
 62
     7
370
    25
100
AcDbLine
 10
33670.6948896757
 20
26679.8482430161
 30
0.0
 11
33669.9460981718
 21
26677.8693870591
 31
0.0
  0
LINE
  5
125
330
1F
100
AcDbEntity
  8
0
  6
Continuous
 62
     7
370
    25
100
AcDbLine
 10
33669.9460981718
 20
26677.8693870591
 30
0.0
 11
33669.3612036405
 21
26675.792862645
 31
0.0
  0
LINE
  5
126
330
1F
100
AcDbEntity
  8
0
  6
Continuous
 62
     7
370
    25
100
AcDbLine
 10
33669.3612036405
 20
26675.792862645
 30
0.0
 11
33668.8806748319
 21
26673.7635911606
 31
0.0
  0
LINE
  5
127
330
1F
100
AcDbEntity
  8
0
  6
Continuous
 62
     7
370
    25
100
AcDbLine
 10
33668.8806748319
 20
26673.7635911606
 30
0.0
 11
33668.4527939725
 21
26671.6785091294
 31
0.0
  0
LINE
  5
128
330
1F
100
AcDbEntity
  8
0
  6
Continuous
 62
     7
370
    25
100
AcDbLine
 10
33668.4527939725
 20
26671.6785091294
 30
0.0
 11
33668.1869497343
 21
26669.6008685044
 31
0.0
  0
LINE
  5
129
330
1F
100
AcDbEntity
  8
0
  6
Continuous
 62
     7
370
    25
100
AcDbLine
 10
33668.1869497343
 20
26669.6008685044
 30
0.0
 11
33667.9730093046
 21
26667.5154144028
 31
0.0
  0
LINE
  5
12A
330
1F
100
AcDbEntity
  8
0
  6
Continuous
 62
     7
370
    25
100
AcDbLine
 10
33667.9730093046
 20
26667.5154144028
 30
0.0
 11
33667.8126469999
 21
26665.4297742661
 31
0.0
  0
LINE
  5
12B
330
1F
100
AcDbEntity
  8
0
  6
Continuous
 62
     7
370
    25
100
AcDbLine
 10
33667.8126469999
 20
26665.4297742661
 30
0.0
 11
33667.7596269804
 21
26663.348412938
 31
0.0
  0
LINE
  5
12C
330
1F
100
AcDbEntity
  8
0
  6
Continuous
 62
     7
370
    25
100
AcDbLine
 10
33667.7596269804
 20
26663.348412938
 30
0.0
 11
33667.8132051054
 21
26659.121694188
 31
0.0
  0
LINE
  5
12D
330
1F
100
AcDbEntity
  8
0
  6
Continuous
 62
     7
370
    25
100
AcDbLine
 10
33667.8132051054
 20
26659.121694188
 30
0.0
 11
33668.0273315702
 21
26654.894975438
 31
0.0
  0
LINE
  5
12E
330
1F
100
AcDbEntity
  8
0
  6
Continuous
 62
     7
370
    25
100
AcDbLine
 10
33668.0273315702
 20
26654.894975438
 30
0.0
 11
33668.348614285
 21
26650.6660242661
 31
0.0
  0
LINE
  5
12F
330
1F
100
AcDbEntity
  8
0
  6
Continuous
 62
     7
370
    25
100
AcDbLine
 10
33668.348614285
 20
26650.6660242661
 30
0.0
 11
33668.7768672147
 21
26646.4912093247
 31
0.0
  0
LINE
  5
130
330
1F
100
AcDbEntity
  8
0
  6
Continuous
 62
     7
370
    25
100
AcDbLine
 10
33668.7768672147
 20
26646.4912093247
 30
0.0
 11
33669.3122763944
 21
26642.316022313
 31
0.0
  0
LINE
  5
131
330
1F
100
AcDbEntity
  8
0
  6
Continuous
 62
     7
370
    25
100
AcDbLine
 10
33669.3122763944
 20
26642.316022313
 30
0.0
 11
33669.954655789
 21
26638.1945994614
 31
0.0
  0
LINE
  5
132
330
1F
100
AcDbEntity
  8
0
  6
Continuous
 62
     7
370
    25
100
AcDbLine
 10
33669.954655789
 20
26638.1945994614
 30
0.0
 11
33670.6507993436
 21
26634.070944188
 31
0.0
  0
LINE
  5
133
330
1F
100
AcDbEntity
  8
0
  6
Continuous
 62
     7
370
    25
100
AcDbLine
 10
33670.6507993436
 20
26634.070944188
 30
0.0
 11
33671.453727078
 21
26629.9491492661
 31
0.0
  0
LINE
  5
134
330
1F
100
AcDbEntity
  8
0
  6
Continuous
 62
     7
370
    25
100
AcDbLine
 10
33671.453727078
 20
26629.9491492661
 30
0.0
 11
33672.3106050077
 21
26625.8256800278
 31
0.0
  0
LINE
  5
135
330
1F
100
AcDbEntity
  8
0
  6
Continuous
 62
     7
370
    25
100
AcDbLine
 10
33672.3106050077
 20
26625.8256800278
 30
0.0
 11
33673.3271011015
 21
26621.759881688
 31
0.0
  0
LINE
  5
136
330
1F
100
AcDbEntity
  8
0
  6
Continuous
 62
     7
370
    25
100
AcDbLine
 10
33673.3271011015
 20
26621.759881688
 30
0.0
 11
33674.3984775663
 21
26617.6896185044
 31
0.0
  0
LINE
  5
137
330
1F
100
AcDbEntity
  8
0
  6
Continuous
 62
     7
370
    25
100
AcDbLine
 10
33674.3984775663
 20
26617.6896185044
 30
0.0
 11
33675.6289140897
 21
26613.6772122544
 31
0.0
  0
LINE
  5
138
330
1F
100
AcDbEntity
  8
0
  6
Continuous
 62
     7
370
    25
100
AcDbLine
 10
33675.6289140897
 20
26613.6772122544
 30
0.0
 11
33676.9142309843
 21
26609.6605271958
 31
0.0
  0
LINE
  5
139
330
1F
100
AcDbEntity
  8
0
  6
Continuous
 62
     7
370
    25
100
AcDbLine
 10
33676.9142309843
 20
26609.6605271958
 30
0.0
 11
33678.3584219022
 21
26605.7562073716
 31
0.0
  0
LINE
  5
13A
330
1F
100
AcDbEntity
  8
0
  6
Continuous
 62
     7
370
    25
100
AcDbLine
 10
33678.3584219022
 20
26605.7562073716
 30
0.0
 11
33679.9110713163
 21
26601.8483528794
 31
0.0
  0
LINE
  5
13B
330
1F
100
AcDbEntity
  8
0
  6
Continuous
 62
     7
370
    25
100
AcDbLine
 10
33679.9110713163
 20
26601.8483528794
 30
0.0
 11
33681.5703188749
 21
26597.9948206528
 31
0.0
  0
LINE
  5
13C
330
1F
100
AcDbEntity
  8
0
  6
Continuous
 62
     7
370
    25
100
AcDbLine
 10
33681.5703188749
 20
26597.9948206528
 30
0.0
 11
33683.3369087186
 21
26594.1405442856
 31
0.0
  0
LINE
  5
13D
330
1F
100
AcDbEntity
  8
0
  6
Continuous
 62
     7
370
    25
100
AcDbLine
 10
33683.3369087186
 20
26594.1405442856
 30
0.0
 11
33685.2099106718
 21
26590.3947264145
 31
0.0
  0
LINE
  5
13E
330
1F
100
AcDbEntity
  8
0
  6
Continuous
 62
     7
370
    25
100
AcDbLine
 10
33685.2099106718
 20
26590.3947264145
 30
0.0
 11
33687.137792996
 21
26586.6457459458
 31
0.0
  0
LINE
  5
13F
330
1F
100
AcDbEntity
  8
0
  6
Continuous
 62
     7
370
    25
100
AcDbLine
 10
33687.137792996
 20
26586.6457459458
 30
0.0
 11
33689.1711572538
 21
26583.0072703599
 31
0.0
  0
LINE
  5
140
330
1F
100
AcDbEntity
  8
0
  6
Continuous
 62
     7
370
    25
100
AcDbLine
 10
33689.1711572538
 20
26583.0072703599
 30
0.0
 11
33691.3127939725
 21
26579.3667483872
 31
0.0
  0
LINE
  5
141
330
1F
100
AcDbEntity
  8
0
  6
Continuous
 62
     7
370
    25
100
AcDbLine
 10
33691.3127939725
 20
26579.3667483872
 30
0.0
 11
33693.5074507108
 21
26575.83394077
 31
0.0
  0
LINE
  5
142
330
1F
100
AcDbEntity
  8
0
  6
Continuous
 62
     7
370
    25
100
AcDbLine
 10
33693.5074507108
 20
26575.83394077
 30
0.0
 11
33695.8622837186
 21
26572.3018772935
 31
0.0
  0
LINE
  5
143
330
1F
100
AcDbEntity
  8
0
  6
Continuous
 62
     7
370
    25
100
AcDbLine
 10
33695.8622837186
 20
26572.3018772935
 30
0.0
 11
33698.2710669218
 21
26568.8760398911
 31
0.0
  0
LINE
  5
144
330
1F
100
AcDbEntity
  8
0
  6
Continuous
 62
     7
370
    25
100
AcDbLine
 10
33698.2710669218
 20
26568.8760398911
 30
0.0
 11
33700.7866343046
 21
26565.5043387192
 31
0.0
  0
LINE
  5
145
330
1F
100
AcDbEntity
  8
0
  6
Continuous
 62
     7
370
    25
100
AcDbLine
 10
33700.7866343046
 20
26565.5043387192
 30
0.0
 11
33703.4086137968
 21
26562.2403519028
 31
0.0
  0
LINE
  5
146
330
1F
100
AcDbEntity
  8
0
  6
Continuous
 62
     7
370
    25
100
AcDbLine
 10
33703.4086137968
 20
26562.2403519028
 30
0.0
 11
33706.086589871
 21
26558.9733885239
 31
0.0
  0
LINE
  5
147
330
1F
100
AcDbEntity
  8
0
  6
Continuous
 62
     7
370
    25
100
AcDbLine
 10
33706.086589871
 20
26558.9733885239
 30
0.0
 11
33708.8689316679
 21
26555.8163719224
 31
0.0
  0
LINE
  5
148
330
1F
100
AcDbEntity
  8
0
  6
Continuous
 62
     7
370
    25
100
AcDbLine
 10
33708.8689316679
 20
26555.8163719224
 30
0.0
 11
33711.7059678007
 21
26552.765581395
 31
0.0
  0
LINE
  5
149
330
1F
100
AcDbEntity
  8
0
  6
Continuous
 62
     7
370
    25
100
AcDbLine
 10
33711.7059678007
 20
26552.765581395
 30
0.0
 11
33714.6507182889
 21
26549.7136746567
 31
0.0
  0
LINE
  5
14A
330
1F
100
AcDbEntity
  8
0
  6
Continuous
 62
     7
370
    25
100
AcDbLine
 10
33714.6507182889
 20
26549.7136746567
 30
0.0
 11
33717.6471865507
 21
26546.824362645
 31
0.0
  0
LINE
  5
14B
330
1F
100
AcDbEntity
  8
0
  6
Continuous
 62
     7
370
    25
100
AcDbLine
 10
33717.6471865507
 20
26546.824362645
 30
0.0
 11
33720.752671414
 21
26543.9330042466
 31
0.0
  0
LINE
  5
14C
330
1F
100
AcDbEntity
  8
0
  6
Continuous
 62
     7
370
    25
100
AcDbLine
 10
33720.752671414
 20
26543.9330042466
 30
0.0
 11
33723.9106181913
 21
26541.1497322739
 31
0.0
  0
LINE
  5
14D
330
1F
100
AcDbEntity
  8
0
  6
Continuous
 62
     7
370
    25
100
AcDbLine
 10
33723.9106181913
 20
26541.1497322739
 30
0.0
 11
33727.1221430936
 21
26538.4738025864
 31
0.0
  0
LINE
  5
14E
330
1F
100
AcDbEntity
  8
0
  6
Continuous
 62
     7
370
    25
100
AcDbLine
 10
33727.1221430936
 20
26538.4738025864
 30
0.0
 11
33730.3881762968
 21
26535.8501487778
 31
0.0
  0
LINE
  5
14F
330
1F
100
AcDbEntity
  8
0
  6
Continuous
 62
     7
370
    25
100
AcDbLine
 10
33730.3881762968
 20
26535.8501487778
 30
0.0
 11
33733.7593193632
 21
26533.3355115708
 31
0.0
  0
LINE
  5
150
330
1F
100
AcDbEntity
  8
0
  6
Continuous
 62
     7
370
    25
100
AcDbLine
 10
33733.7593193632
 20
26533.3355115708
 30
0.0
 11
33737.1860869413
 21
26530.872406102
 31
0.0
  0
LINE
  5
151
330
1F
100
AcDbEntity
  8
0
  6
Continuous
 62
     7
370
    25
100
AcDbLine
 10
33737.1860869413
 20
26530.872406102
 30
0.0
 11
33740.612296414
 21
26528.5168289536
 31
0.0
  0
LINE
  5
152
330
1F
100
AcDbEntity
  8
0
  6
Continuous
 62
     7
370
    25
100
AcDbLine
 10
33740.612296414
 20
26528.5168289536
 30
0.0
 11
33744.1454761015
 21
26526.2150159653
 31
0.0
  0
LINE
  5
153
330
1F
100
AcDbEntity
  8
0
  6
Continuous
 62
     7
370
    25
100
AcDbLine
 10
33744.1454761015
 20
26526.2150159653
 30
0.0
 11
33747.7314897733
 21
26524.0207312974
 31
0.0
  0
LINE
  5
154
330
1F
100
AcDbEntity
  8
0
  6
Continuous
 62
     7
370
    25
100
AcDbLine
 10
33747.7314897733
 20
26524.0207312974
 30
0.0
 11
33751.3723838163
 21
26521.8790945786
 31
0.0
  0
LINE
  5
155
330
1F
100
AcDbEntity
  8
0
  6
Continuous
 62
     7
370
    25
100
AcDbLine
 10
33751.3723838163
 20
26521.8790945786
 30
0.0
 11
33755.0129057889
 21
26519.8446141099
 31
0.0
  0
LINE
  5
156
330
1F
100
AcDbEntity
  8
0
  6
Continuous
 62
     7
370
    25
100
AcDbLine
 10
33755.0129057889
 20
26519.8446141099
 30
0.0
 11
33758.7073779569
 21
26517.863525731
 31
0.0
  0
LINE
  5
157
330
1F
100
AcDbEntity
  8
0
  6
Continuous
 62
     7
370
    25
100
AcDbLine
 10
33758.7073779569
 20
26517.863525731
 30
0.0
 11
33762.5065879179
 21
26515.990709813
 31
0.0
  0
LINE
  5
158
330
1F
100
AcDbEntity
  8
0
  6
Continuous
 62
     7
370
    25
100
AcDbLine
 10
33762.5065879179
 20
26515.990709813
 30
0.0
 11
33766.2563125272
 21
26514.1694256333
 31
0.0
  0
LINE
  5
159
330
1F
100
AcDbEntity
  8
0
  6
Continuous
 62
     7
370
    25
100
AcDbLine
 10
33766.2563125272
 20
26514.1694256333
 30
0.0
 11
33770.1092866483
 21
26512.4573440903
 31
0.0
  0
LINE
  5
15A
330
1F
100
AcDbEntity
  8
0
  6
Continuous
 62
     7
370
    25
100
AcDbLine
 10
33770.1092866483
 20
26512.4573440903
 30
0.0
 11
33773.9654233671
 21
26510.797166356
 31
0.0
  0
LINE
  5
15B
330
1F
100
AcDbEntity
  8
0
  6
Continuous
 62
     7
370
    25
100
AcDbLine
 10
33773.9654233671
 20
26510.797166356
 30
0.0
 11
33777.8723476835
 21
26509.2448890122
 31
0.0
  0
LINE
  5
15C
330
1F
100
AcDbEntity
  8
0
  6
Continuous
 62
     7
370
    25
100
AcDbLine
 10
33777.8723476835
 20
26509.2448890122
 30
0.0
 11
33781.7818764921
 21
26507.7454456528
 31
0.0
  0
LINE
  5
15D
330
1F
100
AcDbEntity
  8
0
  6
Continuous
 62
     7
370
    25
100
AcDbLine
 10
33781.7818764921
 20
26507.7454456528
 30
0.0
 11
33785.7444253202
 21
26506.2997664536
 31
0.0
  0
LINE
  5
15E
330
1F
100
AcDbEntity
  8
0
  6
Continuous
 62
     7
370
    25
100
AcDbLine
 10
33785.7444253202
 20
26506.2997664536
 30
0.0
 11
33789.7058579374
 21
26504.9614295395
 31
0.0
  0
LINE
  5
15F
330
1F
100
AcDbEntity
  8
0
  6
Continuous
 62
     7
370
    25
100
AcDbLine
 10
33789.7058579374
 20
26504.9614295395
 30
0.0
 11
33793.7216128202
 21
26503.6762986802
 31
0.0
  0
LINE
  5
160
330
1F
100
AcDbEntity
  8
0
  6
Continuous
 62
     7
370
    25
100
AcDbLine
 10
33793.7216128202
 20
26503.6762986802
 30
0.0
 11
33797.7364375272
 21
26502.4986961411
 31
0.0
  0
LINE
  5
161
330
1F
100
AcDbEntity
  8
0
  6
Continuous
 62
     7
370
    25
100
AcDbLine
 10
33797.7364375272
 20
26502.4986961411
 30
0.0
 11
33801.7531225858
 21
26501.3741136216
 31
0.0
  0
LINE
  5
162
330
1F
100
AcDbEntity
  8
0
  6
Continuous
 62
     7
370
    25
100
AcDbLine
 10
33801.7531225858
 20
26501.3741136216
 30
0.0
 11
33805.8228276639
 21
26500.3032952622
 31
0.0
  0
LINE
  5
163
330
1F
100
AcDbEntity
  8
0
  6
Continuous
 62
     7
370
    25
100
AcDbLine
 10
33805.8228276639
 20
26500.3032952622
 30
0.0
 11
33814.0165600858
 21
26498.3752269028
 31
0.0
  0
LINE
  5
164
330
1F
100
AcDbEntity
  8
0
  6
Continuous
 62
     7
370
    25
100
AcDbLine
 10
33814.0165600858
 20
26498.3752269028
 30
0.0
 11
33818.1379829374
 21
26497.5189070786
 31
0.0
  0
LINE
  5
165
330
1F
100
AcDbEntity
  8
0
  6
Continuous
 62
     7
370
    25
100
AcDbLine
 10
33818.1379829374
 20
26497.5189070786
 30
0.0
 11
33822.2616382108
 21
26496.7156072739
 31
0.0
  0
LINE
  5
166
330
1F
100
AcDbEntity
  8
0
  6
Continuous
 62
     7
370
    25
100
AcDbLine
 10
33822.2616382108
 20
26496.7156072739
 30
0.0
 11
33830.5623408476
 21
26495.3231341294
 31
0.0
  0
LINE
  5
167
330
1F
100
AcDbEntity
  8
0
  6
Continuous
 62
     7
370
    25
100
AcDbLine
 10
33830.5623408476
 20
26495.3231341294
 30
0.0
 11
33834.7375278593
 21
26494.734518895
 31
0.0
  0
LINE
  5
168
330
1F
100
AcDbEntity
  8
0
  6
Continuous
 62
     7
370
    25
100
AcDbLine
 10
33834.7375278593
 20
26494.734518895
 30
0.0
 11
33838.8613691679
 21
26494.1989236802
 31
0.0
  0
LINE
  5
169
330
1F
100
AcDbEntity
  8
0
  6
Continuous
 62
     7
370
    25
100
AcDbLine
 10
33838.8613691679
 20
26494.1989236802
 30
0.0
 11
33847.2156499296
 21
26493.3422317856
 31
0.0
  0
LINE
  5
16A
330
1F
100
AcDbEntity
  8
0
  6
Continuous
 62
     7
370
    25
100
AcDbLine
 10
33847.2156499296
 20
26493.3422317856
 30
0.0
 11
33851.4442290311
 21
26493.021135106
 31
0.0
  0
LINE
  5
16B
330
1F
100
AcDbEntity
  8
0
  6
Continuous
 62
     7
370
    25
100
AcDbLine
 10
33851.4442290311
 20
26493.021135106
 30
0.0
 11
33855.6194160429
 21
26492.8070086411
 31
0.0
  0
LINE
  5
16C
330
1F
100
AcDbEntity
  8
0
  6
Continuous
 62
     7
370
    25
100
AcDbLine
 10
33855.6194160429
 20
26492.8070086411
 30
0.0
 11
33864.0304375272
 21
26492.4319617661
 31
0.0
  0
LINE
  5
16D
330
1F
100
AcDbEntity
  8
0
  6
Continuous
 62
     7
370
    25
100
AcDbLine
 10
33653.8560501755
 20
26268.3704867315
 30
0.0
 11
33653.8560501755
 21
26273.0321556768
 31
0.0
  0
SPLINE
  5
16E
330
1F
100
AcDbEntity
  8
0
  6
Continuous
 62
     7
370
    25
100
AcDbSpline
210
0.0
220
0.0
230
1.0
 70
     8
 71
     3
 72
     8
 73
     4
 74
     0
 42
0.000000001
 43
0.00000001
 40
2.0
 40
2.0
 40
2.0
 40
2.0
 40
3.0
 40
3.0
 40
3.0
 40
3.0
 10
33653.85605017553
 20
26273.03215567682
 30
0.0
 10
33653.85605017553
 20
26273.12108048151
 30
0.0
 10
33653.92804578099
 20
26273.19289005183
 30
0.0
 10
33654.01678455053
 20
26273.19289005183
 30
0.0
  0
LINE
  5
16F
330
1F
100
AcDbEntity
  8
0
  6
Continuous
 62
     7
370
    25
100
AcDbLine
 10
33654.0167845505
 20
26273.1928900518
 30
0.0
 11
33695.1662728318
 21
26273.1928900518
 31
0.0
  0
SPLINE
  5
170
330
1F
100
AcDbEntity
  8
0
  6
Continuous
 62
     7
370
    25
100
AcDbSpline
210
0.0
220
0.0
230
1.0
 70
     8
 71
     3
 72
     8
 73
     4
 74
     0
 42
0.000000001
 43
0.00000001
 40
3.0
 40
3.0
 40
3.0
 40
3.0
 40
4.0
 40
4.0
 40
4.0
 40
4.0
 10
33695.16627283178
 20
26273.19289005183
 30
0.0
 10
33695.2550116013
 20
26273.19289005183
 30
0.0
 10
33695.32700720678
 20
26273.12108048151
 30
0.0
 10
33695.32700720678
 20
26273.03215567682
 30
0.0
  0
LINE
  5
171
330
1F
100
AcDbEntity
  8
0
  6
Continuous
 62
     7
370
    25
100
AcDbLine
 10
33695.3270072068
 20
26273.0321556768
 30
0.0
 11
33695.3270072068
 21
26268.3704867315
 31
0.0
  0
SPLINE
  5
172
330
1F
100
AcDbEntity
  8
0
  6
Continuous
 62
     7
370
    25
100
AcDbSpline
210
0.0
220
0.0
230
1.0
 70
     8
 71
     3
 72
     8
 73
     4
 74
     0
 42
0.000000001
 43
0.00000001
 40
5.0
 40
5.0
 40
5.0
 40
5.0
 40
6.0
 40
6.0
 40
6.0
 40
6.0
 10
33695.32700720678
 20
26268.37048673151
 30
0.0
 10
33695.32700720678
 20
26268.28156192683
 30
0.0
 10
33695.2550116013
 20
26268.20975235652
 30
0.0
 10
33695.16627283178
 20
26268.20975235652
 30
0.0
  0
LINE
  5
173
330
1F
100
AcDbEntity
  8
0
  6
Continuous
 62
     7
370
    25
100
AcDbLine
 10
33695.1662728318
 20
26268.2097523565
 30
0.0
 11
33654.0167845505
 21
26268.2097523565
 31
0.0
  0
SPLINE
  5
174
330
1F
100
AcDbEntity
  8
0
  6
Continuous
 62
     7
370
    25
100
AcDbSpline
210
0.0
220
0.0
230
1.0
 70
     8
 71
     3
 72
     8
 73
     4
 74
     0
 42
0.000000001
 43
0.00000001
 40
0.0
 40
0.0
 40
0.0
 40
0.0
 40
1.0
 40
1.0
 40
1.0
 40
1.0
 10
33654.01678455053
 20
26268.20975235652
 30
0.0
 10
33653.92804578099
 20
26268.20975235652
 30
0.0
 10
33653.85605017553
 20
26268.28156192683
 30
0.0
 10
33653.85605017553
 20
26268.37048673151
 30
0.0
  0
LINE
  5
175
330
1F
100
AcDbEntity
  8
0
  6
Continuous
 62
     7
370
    25
100
AcDbLine
 10
33728.0107796677
 20
26268.3704867315
 30
0.0
 11
33728.0107796677
 21
26273.0321556768
 31
0.0
  0
SPLINE
  5
176
330
1F
100
AcDbEntity
  8
0
  6
Continuous
 62
     7
370
    25
100
AcDbSpline
210
0.0
220
0.0
230
1.0
 70
     8
 71
     3
 72
     8
 73
     4
 74
     0
 42
0.000000001
 43
0.00000001
 40
2.0
 40
2.0
 40
2.0
 40
2.0
 40
3.0
 40
3.0
 40
3.0
 40
3.0
 10
33728.01077966771
 20
26273.03215567682
 30
0.0
 10
33728.01077966771
 20
26273.12108048151
 30
0.0
 10
33728.08277527319
 20
26273.19289005183
 30
0.0
 10
33728.17151404271
 20
26273.19289005183
 30
0.0
  0
LINE
  5
177
330
1F
100
AcDbEntity
  8
0
  6
Continuous
 62
     7
370
    25
100
AcDbLine
 10
33728.1715140427
 20
26273.1928900518
 30
0.0
 11
33769.321002324
 21
26273.1928900518
 31
0.0
  0
SPLINE
  5
178
330
1F
100
AcDbEntity
  8
0
  6
Continuous
 62
     7
370
    25
100
AcDbSpline
210
0.0
220
0.0
230
1.0
 70
     8
 71
     3
 72
     8
 73
     4
 74
     0
 42
0.000000001
 43
0.00000001
 40
3.0
 40
3.0
 40
3.0
 40
3.0
 40
4.0
 40
4.0
 40
4.0
 40
4.0
 10
33769.32100232397
 20
26273.19289005183
 30
0.0
 10
33769.40992712865
 20
26273.19289005183
 30
0.0
 10
33769.48173669897
 20
26273.12108048151
 30
0.0
 10
33769.48173669897
 20
26273.03215567682
 30
0.0
  0
LINE
  5
179
330
1F
100
AcDbEntity
  8
0
  6
Continuous
 62
     7
370
    25
100
AcDbLine
 10
33769.481736699
 20
26273.0321556768
 30
0.0
 11
33769.481736699
 21
26268.3704867315
 31
0.0
  0
SPLINE
  5
17A
330
1F
100
AcDbEntity
  8
0
  6
Continuous
 62
     7
370
    25
100
AcDbSpline
210
0.0
220
0.0
230
1.0
 70
     8
 71
     3
 72
     8
 73
     4
 74
     0
 42
0.000000001
 43
0.00000001
 40
5.0
 40
5.0
 40
5.0
 40
5.0
 40
6.0
 40
6.0
 40
6.0
 40
6.0
 10
33769.48173669897
 20
26268.37048673151
 30
0.0
 10
33769.48173669897
 20
26268.28156192683
 30
0.0
 10
33769.40992712865
 20
26268.20975235652
 30
0.0
 10
33769.32100232397
 20
26268.20975235652
 30
0.0
  0
LINE
  5
17B
330
1F
100
AcDbEntity
  8
0
  6
Continuous
 62
     7
370
    25
100
AcDbLine
 10
33769.321002324
 20
26268.2097523565
 30
0.0
 11
33728.1715140427
 21
26268.2097523565
 31
0.0
  0
SPLINE
  5
17C
330
1F
100
AcDbEntity
  8
0
  6
Continuous
 62
     7
370
    25
100
AcDbSpline
210
0.0
220
0.0
230
1.0
 70
     8
 71
     3
 72
     8
 73
     4
 74
     0
 42
0.000000001
 43
0.00000001
 40
0.0
 40
0.0
 40
0.0
 40
0.0
 40
1.0
 40
1.0
 40
1.0
 40
1.0
 10
33728.17151404271
 20
26268.20975235652
 30
0.0
 10
33728.08277527319
 20
26268.20975235652
 30
0.0
 10
33728.01077966771
 20
26268.28156192683
 30
0.0
 10
33728.01077966771
 20
26268.37048673151
 30
0.0
  0
LINE
  5
17D
330
1F
100
AcDbEntity
  8
0
  6
Continuous
 62
     7
370
    25
100
AcDbLine
 10
33758.0156458787
 20
26181.624525794
 30
0.0
 11
33931.186471074
 21
26181.624525794
 31
0.0
  0
SPLINE
  5
17E
330
1F
100
AcDbEntity
  8
0
  6
Continuous
 62
     7
370
    25
100
AcDbSpline
210
0.0
220
0.0
230
1.0
 70
     8
 71
     3
 72
     8
 73
     4
 74
     0
 42
0.000000001
 43
0.00000001
 40
6.0
 40
6.0
 40
6.0
 40
6.0
 40
7.0
 40
7.0
 40
7.0
 40
7.0
 10
33931.18647107396
 20
26181.62452579401
 30
0.0
 10
33931.27539587866
 20
26181.62452579401
 30
0.0
 10
33931.34720544897
 20
26181.5527162237
 30
0.0
 10
33931.34720544897
 20
26181.46379141901
 30
0.0
  0
LINE
  5
17F
330
1F
100
AcDbEntity
  8
0
  6
Continuous
 62
     7
370
    25
100
AcDbLine
 10
33931.347205449
 20
26181.463791419
 30
0.0
 11
33931.347205449
 21
26176.963228919
 31
0.0
  0
LINE
  5
180
330
1F
100
AcDbEntity
  8
0
  6
Continuous
 62
     7
370
    25
100
AcDbLine
 10
33931.347205449
 20
26176.963228919
 30
0.0
 11
33959.0392831142
 21
26176.963228919
 31
0.0
  0
LINE
  5
181
330
1F
100
AcDbEntity
  8
0
  6
Continuous
 62
     7
370
    25
100
AcDbLine
 10
33959.0392831142
 20
26176.963228919
 30
0.0
 11
33964.3900257615
 21
26177.4982660284
 31
0.0
  0
LINE
  5
182
330
1F
100
AcDbEntity
  8
0
  6
Continuous
 62
     7
370
    25
100
AcDbLine
 10
33964.3900257615
 20
26177.4982660284
 30
0.0
 11
33969.798439824
 21
26178.1408314581
 31
0.0
  0
LINE
  5
183
330
1F
100
AcDbEntity
  8
0
  6
Continuous
 62
     7
370
    25
100
AcDbLine
 10
33969.798439824
 20
26178.1408314581
 30
0.0
 11
33975.2057376755
 21
26178.9437591925
 31
0.0
  0
LINE
  5
184
330
1F
100
AcDbEntity
  8
0
  6
Continuous
 62
     7
370
    25
100
AcDbLine
 10
33975.2057376755
 20
26178.9437591925
 30
0.0
 11
33980.5047630662
 21
26179.9074213018
 31
0.0
  0
LINE
  5
185
330
1F
100
AcDbEntity
  8
0
  6
Continuous
 62
     7
370
    25
100
AcDbLine
 10
33980.5047630662
 20
26179.9074213018
 30
0.0
 11
33985.859971074
 21
26180.9786117315
 31
0.0
  0
LINE
  5
186
330
1F
100
AcDbEntity
  8
0
  6
Continuous
 62
     7
370
    25
100
AcDbLine
 10
33985.859971074
 20
26180.9786117315
 30
0.0
 11
33991.1057904099
 21
26182.2097923956
 31
0.0
  0
LINE
  5
187
330
1F
100
AcDbEntity
  8
0
  6
Continuous
 62
     7
370
    25
100
AcDbLine
 10
33991.1057904099
 20
26182.2097923956
 30
0.0
 11
33996.4059320115
 21
26183.6017074346
 31
0.0
  0
LINE
  5
188
330
1F
100
AcDbEntity
  8
0
  6
Continuous
 62
     7
370
    25
100
AcDbLine
 10
33996.4059320115
 20
26183.6017074346
 30
0.0
 11
34001.5978011521
 21
26185.1539847784
 31
0.0
  0
LINE
  5
189
330
1F
100
AcDbEntity
  8
0
  6
Continuous
 62
     7
370
    25
100
AcDbLine
 10
34001.5978011521
 20
26185.1539847784
 30
0.0
 11
34006.7922747849
 21
26186.8145345831
 31
0.0
  0
LINE
  5
18A
330
1F
100
AcDbEntity
  8
0
  6
Continuous
 62
     7
370
    25
100
AcDbLine
 10
34006.7922747849
 20
26186.8145345831
 30
0.0
 11
34011.8773597458
 21
26188.6343304815
 31
0.0
  0
LINE
  5
18B
330
1F
100
AcDbEntity
  8
0
  6
Continuous
 62
     7
370
    25
100
AcDbLine
 10
34011.8773597458
 20
26188.6343304815
 30
0.0
 11
34016.9631888474
 21
26190.6152328253
 31
0.0
  0
LINE
  5
18C
330
1F
100
AcDbEntity
  8
0
  6
Continuous
 62
     7
370
    25
100
AcDbLine
 10
34016.9631888474
 20
26190.6152328253
 30
0.0
 11
34021.9950677536
 21
26192.7564974737
 31
0.0
  0
LINE
  5
18D
330
1F
100
AcDbEntity
  8
0
  6
Continuous
 62
     7
370
    25
100
AcDbLine
 10
34021.9950677536
 20
26192.7564974737
 30
0.0
 11
34024.5084027146
 21
26193.9326117315
 31
0.0
  0
LINE
  5
18E
330
1F
100
AcDbEntity
  8
0
  6
Continuous
 62
     7
370
    25
100
AcDbLine
 10
34024.5084027146
 20
26193.9326117315
 30
0.0
 11
34026.9718802537
 21
26195.1109584112
 31
0.0
  0
LINE
  5
18F
330
1F
100
AcDbEntity
  8
0
  6
Continuous
 62
     7
370
    25
100
AcDbLine
 10
34026.9718802537
 20
26195.1109584112
 30
0.0
 11
34029.4312650193
 21
26196.3946009893
 31
0.0
  0
LINE
  5
190
330
1F
100
AcDbEntity
  8
0
  6
Continuous
 62
     7
370
    25
100
AcDbLine
 10
34029.4312650193
 20
26196.3946009893
 30
0.0
 11
34031.8385599411
 21
26197.7321937628
 31
0.0
  0
LINE
  5
191
330
1F
100
AcDbEntity
  8
0
  6
Continuous
 62
     7
370
    25
100
AcDbLine
 10
34031.8385599411
 20
26197.7321937628
 30
0.0
 11
34034.2477152146
 21
26199.1237367315
 31
0.0
  0
LINE
  5
192
330
1F
100
AcDbEntity
  8
0
  6
Continuous
 62
     7
370
    25
100
AcDbLine
 10
34034.2477152146
 20
26199.1237367315
 30
0.0
 11
34036.6542659958
 21
26200.6213197393
 31
0.0
  0
LINE
  5
193
330
1F
100
AcDbEntity
  8
0
  6
Continuous
 62
     7
370
    25
100
AcDbLine
 10
34036.6542659958
 20
26200.6213197393
 30
0.0
 11
34038.9510560349
 21
26202.2238265753
 31
0.0
  0
LINE
  5
194
330
1F
100
AcDbEntity
  8
0
  6
Continuous
 62
     7
370
    25
100
AcDbLine
 10
34038.9510560349
 20
26202.2238265753
 30
0.0
 11
34041.3058890427
 21
26203.9364662237
 31
0.0
  0
LINE
  5
195
330
1F
100
AcDbEntity
  8
0
  6
Continuous
 62
     7
370
    25
100
AcDbLine
 10
34041.3058890427
 20
26203.9364662237
 30
0.0
 11
34042.474189824
 21
26204.9462650518
 31
0.0
  0
LINE
  5
196
330
1F
100
AcDbEntity
  8
0
  6
Continuous
 62
     7
370
    25
100
AcDbLine
 10
34042.474189824
 20
26204.9462650518
 30
0.0
 11
34043.1134066208
 21
26205.532275794
 31
0.0
  0
LINE
  5
197
330
1F
100
AcDbEntity
  8
0
  6
Continuous
 62
     7
370
    25
100
AcDbLine
 10
34043.1134066208
 20
26205.532275794
 30
0.0
 11
34043.800620488
 21
26206.2738119268
 31
0.0
  0
LINE
  5
198
330
1F
100
AcDbEntity
  8
0
  6
Continuous
 62
     7
370
    25
100
AcDbLine
 10
34043.800620488
 20
26206.2738119268
 30
0.0
 11
34044.5481097458
 21
26207.127713294
 31
0.0
  0
LINE
  5
199
330
1F
100
AcDbEntity
  8
0
  6
Continuous
 62
     7
370
    25
100
AcDbLine
 10
34044.5481097458
 20
26207.127713294
 30
0.0
 11
34044.8569281052
 21
26207.593173255
 31
0.0
  0
LINE
  5
19A
330
1F
100
AcDbEntity
  8
0
  6
Continuous
 62
     7
370
    25
100
AcDbLine
 10
34044.8569281052
 20
26207.593173255
 30
0.0
 11
34045.1683509568
 21
26208.2186234503
 31
0.0
  0
LINE
  5
19B
330
1F
100
AcDbEntity
  8
0
  6
Continuous
 62
     7
370
    25
100
AcDbLine
 10
34045.1683509568
 20
26208.2186234503
 30
0.0
 11
34045.3867562302
 21
26208.6014838018
 31
0.0
  0
LINE
  5
19C
330
1F
100
AcDbEntity
  8
0
  6
Continuous
 62
     7
370
    25
100
AcDbLine
 10
34045.3867562302
 20
26208.6014838018
 30
0.0
 11
34045.7465482224
 21
26209.426735755
 31
0.0
  0
LINE
  5
19D
330
1F
100
AcDbEntity
  8
0
  6
Continuous
 62
     7
370
    25
100
AcDbLine
 10
34045.7465482224
 20
26209.426735755
 30
0.0
 11
34045.9571400193
 21
26210.6378246221
 31
0.0
  0
LINE
  5
19E
330
1F
100
AcDbEntity
  8
0
  6
Continuous
 62
     7
370
    25
100
AcDbLine
 10
34045.9571400193
 20
26210.6378246221
 30
0.0
 11
34046.0088577927
 21
26211.425869544
 31
0.0
  0
LINE
  5
19F
330
1F
100
AcDbEntity
  8
0
  6
Continuous
 62
     7
370
    25
100
AcDbLine
 10
34046.0088577927
 20
26211.425869544
 30
0.0
 11
34045.9024456833
 21
26212.3616263799
 31
0.0
  0
LINE
  5
1A0
330
1F
100
AcDbEntity
  8
0
  6
Continuous
 62
     7
370
    25
100
AcDbLine
 10
34045.9024456833
 20
26212.3616263799
 30
0.0
 11
34045.7487806443
 21
26212.8107152471
 31
0.0
  0
LINE
  5
1A1
330
1F
100
AcDbEntity
  8
0
  6
Continuous
 62
     7
370
    25
100
AcDbLine
 10
34045.7487806443
 20
26212.8107152471
 30
0.0
 11
34045.6382757615
 21
26213.2512464971
 31
0.0
  0
LINE
  5
1A2
330
1F
100
AcDbEntity
  8
0
  6
Continuous
 62
     7
370
    25
100
AcDbLine
 10
34045.6382757615
 20
26213.2512464971
 30
0.0
 11
34045.3800589646
 21
26213.813072669
 31
0.0
  0
LINE
  5
1A3
330
1F
100
AcDbEntity
  8
0
  6
Continuous
 62
     7
370
    25
100
AcDbLine
 10
34045.3800589646
 20
26213.813072669
 30
0.0
 11
34045.1177493943
 21
26214.2837416143
 31
0.0
  0
LINE
  5
1A4
330
1F
100
AcDbEntity
  8
0
  6
Continuous
 62
     7
370
    25
100
AcDbLine
 10
34045.1177493943
 20
26214.2837416143
 30
0.0
 11
34044.3259837693
 21
26215.337072669
 31
0.0
  0
LINE
  5
1A5
330
1F
100
AcDbEntity
  8
0
  6
Continuous
 62
     7
370
    25
100
AcDbLine
 10
34044.3259837693
 20
26215.337072669
 30
0.0
 11
34044.0629300583
 21
26215.6518441534
 31
0.0
  0
LINE
  5
1A6
330
1F
100
AcDbEntity
  8
0
  6
Continuous
 62
     7
370
    25
100
AcDbLine
 10
34044.0629300583
 20
26215.6518441534
 30
0.0
 11
34042.8916527146
 21
26216.8763275518
 31
0.0
  0
LINE
  5
1A7
330
1F
100
AcDbEntity
  8
0
  6
Continuous
 62
     7
370
    25
100
AcDbLine
 10
34042.8916527146
 20
26216.8763275518
 30
0.0
 11
34040.491799199
 21
26218.9554564581
 31
0.0
  0
LINE
  5
1A8
330
1F
100
AcDbEntity
  8
0
  6
Continuous
 62
     7
370
    25
100
AcDbLine
 10
34040.491799199
 20
26218.9554564581
 30
0.0
 11
34039.2725247849
 21
26219.8022884893
 31
0.0
  0
LINE
  5
1A9
330
1F
100
AcDbEntity
  8
0
  6
Continuous
 62
     7
370
    25
100
AcDbLine
 10
34039.2725247849
 20
26219.8022884893
 30
0.0
 11
34038.0912015427
 21
26220.6617709112
 31
0.0
  0
LINE
  5
1AA
330
1F
100
AcDbEntity
  8
0
  6
Continuous
 62
     7
370
    25
100
AcDbLine
 10
34038.0912015427
 20
26220.6617709112
 30
0.0
 11
34035.6355374802
 21
26222.2095834112
 31
0.0
  0
LINE
  5
1AB
330
1F
100
AcDbEntity
  8
0
  6
Continuous
 62
     7
370
    25
100
AcDbLine
 10
34035.6355374802
 20
26222.2095834112
 30
0.0
 11
34033.1772689255
 21
26223.5985218878
 31
0.0
  0
LINE
  5
1AC
330
1F
100
AcDbEntity
  8
0
  6
Continuous
 62
     7
370
    25
100
AcDbLine
 10
34033.1772689255
 20
26223.5985218878
 30
0.0
 11
34030.7171400193
 21
26224.8817923956
 31
0.0
  0
LINE
  5
1AD
330
1F
100
AcDbEntity
  8
0
  6
Continuous
 62
     7
370
    25
100
AcDbLine
 10
34030.7171400193
 20
26224.8817923956
 30
0.0
 11
34028.2551507615
 21
26226.1129730596
 31
0.0
  0
LINE
  5
1AE
330
1F
100
AcDbEntity
  8
0
  6
Continuous
 62
     7
370
    25
100
AcDbLine
 10
34028.2551507615
 20
26226.1129730596
 30
0.0
 11
34025.7406995896
 21
26227.2902035284
 31
0.0
  0
LINE
  5
1AF
330
1F
100
AcDbEntity
  8
0
  6
Continuous
 62
     7
370
    25
100
AcDbLine
 10
34025.7406995896
 20
26227.2902035284
 30
0.0
 11
34020.7091927537
 21
26229.4307240362
 31
0.0
  0
LINE
  5
1B0
330
1F
100
AcDbEntity
  8
0
  6
Continuous
 62
     7
370
    25
100
AcDbLine
 10
34020.7091927537
 20
26229.4307240362
 30
0.0
 11
34015.6237357224
 21
26231.4112543096
 31
0.0
  0
LINE
  5
1B1
330
1F
100
AcDbEntity
  8
0
  6
Continuous
 62
     7
370
    25
100
AcDbLine
 10
34015.6237357224
 20
26231.4112543096
 30
0.0
 11
34010.4861888474
 21
26233.1771000128
 31
0.0
  0
LINE
  5
1B2
330
1F
100
AcDbEntity
  8
0
  6
Continuous
 62
     7
370
    25
100
AcDbLine
 10
34010.4861888474
 20
26233.1771000128
 30
0.0
 11
34005.2920872849
 21
26234.8369056768
 31
0.0
  0
LINE
  5
1B3
330
1F
100
AcDbEntity
  8
0
  6
Continuous
 62
     7
370
    25
100
AcDbLine
 10
34005.2920872849
 20
26234.8369056768
 30
0.0
 11
34000.0976136521
 21
26236.3899271612
 31
0.0
  0
LINE
  5
1B4
330
1F
100
AcDbEntity
  8
0
  6
Continuous
 62
     7
370
    25
100
AcDbLine
 10
34000.0976136521
 20
26236.3899271612
 30
0.0
 11
33994.9050003708
 21
26237.7822142706
 31
0.0
  0
LINE
  5
1B5
330
1F
100
AcDbEntity
  8
0
  6
Continuous
 62
     7
370
    25
100
AcDbLine
 10
33994.9050003708
 20
26237.7822142706
 30
0.0
 11
33989.6041146287
 21
26239.0669730596
 31
0.0
  0
LINE
  5
1B6
330
1F
100
AcDbEntity
  8
0
  6
Continuous
 62
     7
370
    25
100
AcDbLine
 10
33989.6041146287
 20
26239.0669730596
 30
0.0
 11
33984.3043450974
 21
26240.1909974737
 31
0.0
  0
LINE
  5
1B7
330
1F
100
AcDbEntity
  8
0
  6
Continuous
 62
     7
370
    25
100
AcDbLine
 10
33984.3043450974
 20
26240.1909974737
 30
0.0
 11
33979.0030872849
 21
26241.2086097784
 31
0.0
  0
LINE
  5
1B8
330
1F
100
AcDbEntity
  8
0
  6
Continuous
 62
     7
370
    25
100
AcDbLine
 10
33979.0030872849
 20
26241.2086097784
 30
0.0
 11
33973.650111699
 21
26242.0647435675
 31
0.0
  0
LINE
  5
1B9
330
1F
100
AcDbEntity
  8
0
  6
Continuous
 62
     7
370
    25
100
AcDbLine
 10
33973.650111699
 20
26242.0647435675
 30
0.0
 11
33968.2508885809
 21
26242.7598954016
 31
0.0
  0
SPLINE
  5
1BA
330
1F
100
AcDbEntity
  8
0
  6
Continuous
 62
     7
370
    25
100
AcDbSpline
210
0.0
220
0.0
230
1.0
 70
     8
 71
     3
 72
     8
 73
     4
 74
     0
 42
0.000000001
 43
0.00000001
 40
1.04830744588771
 40
1.04830744588771
 40
1.04830744588771
 40
1.04830744588771
 40
2.0
 40
2.0
 40
2.0
 40
2.0
 10
33968.25088858087
 20
26242.75989540161
 30
0.0
 10
33968.16795468183
 20
26242.76637665502
 30
0.0
 10
33968.1029154099
 20
26242.83550414139
 30
0.0
 10
33968.1029154099
 20
26242.92013321588
 30
0.0
  0
SPLINE
  5
1BB
330
1F
100
AcDbEntity
  8
0
  6
Continuous
 62
     7
370
    25
100
AcDbSpline
210
0.0
220
0.0
230
1.0
 70
     8
 71
     3
 72
     8
 73
     4
 74
     0
 42
0.000000001
 43
0.00000001
 40
2.0
 40
2.0
 40
2.0
 40
2.0
 40
2.510621999329387
 40
2.510621999329387
 40
2.510621999329387
 40
2.510621999329387
 10
33968.1029154099
 20
26242.92013321588
 30
0.0
 10
33968.1029154099
 20
26242.96554017744
 30
0.0
 10
33968.12163866573
 20
26243.00648460134
 30
0.0
 10
33968.15180334097
 20
26243.03568465116
 30
0.0
  0
SPLINE
  5
1BC
330
1F
100
AcDbEntity
  8
0
  6
Continuous
 62
     7
370
    25
100
AcDbSpline
210
0.0
220
0.0
230
1.0
 70
     8
 71
     3
 72
     8
 73
     4
 74
     0
 42
0.000000001
 43
0.00000001
 40
60.42388134734631
 40
60.42388134734631
 40
60.42388134734631
 40
60.42388134734631
 40
60.94333594434641
 40
60.94333594434641
 40
60.94333594434641
 40
60.94333594434641
 10
33968.15180334108
 20
26243.03568465107
 30
0.0
 10
33968.18264616086
 20
26243.06578443117
 30
0.0
 10
33968.22500463881
 20
26243.08322700175
 30
0.0
 10
33968.26949148339
 20
26243.08086759088
 30
0.0
  0
LINE
  5
1BD
330
1F
100
AcDbEntity
  8
0
  6
Continuous
 62
     7
370
    25
100
AcDbLine
 10
33968.2694914834
 20
26243.0808675909
 30
0.0
 11
34178.0294505662
 21
26243.0808675909
 31
0.0
  0
LINE
  5
1BE
330
1F
100
AcDbEntity
  8
0
  6
Continuous
 62
     7
370
    25
100
AcDbLine
 10
34178.0294505662
 20
26243.0808675909
 30
0.0
 11
34178.0294505662
 21
26253.1003490362
 31
0.0
  0
SPLINE
  5
1BF
330
1F
100
AcDbEntity
  8
0
  6
Continuous
 62
     7
370
    25
100
AcDbSpline
210
0.0
220
0.0
230
1.0
 70
     8
 71
     3
 72
     8
 73
     4
 74
     0
 42
0.000000001
 43
0.00000001
 40
2.0
 40
2.0
 40
2.0
 40
2.0
 40
3.0
 40
3.0
 40
3.0
 40
3.0
 10
34178.02945056615
 20
26253.1003490362
 30
0.0
 10
34178.02945056615
 20
26253.18927384089
 30
0.0
 10
34178.10126013646
 20
26253.2610834112
 30
0.0
 10
34178.19018494115
 20
26253.2610834112
 30
0.0
  0
LINE
  5
1C0
330
1F
100
AcDbEntity
  8
0
  6
Continuous
 62
     7
370
    25
100
AcDbLine
 10
34178.1901849412
 20
26253.2610834112
 30
0.0
 11
34201.5513636521
 21
26253.2610834112
 31
0.0
  0
LINE
  5
1C1
330
1F
100
AcDbEntity
  8
0
  6
Continuous
 62
     7
370
    25
100
AcDbLine
 10
34201.5513636521
 20
26253.2610834112
 30
0.0
 11
34201.5513636521
 21
26288.0879808721
 31
0.0
  0
LINE
  5
1C2
330
1F
100
AcDbEntity
  8
0
  6
Continuous
 62
     7
370
    25
100
AcDbLine
 10
34201.5513636521
 20
26288.0879808721
 30
0.0
 11
34178.2437630662
 21
26288.0879808721
 31
0.0
  0
SPLINE
  5
1C3
330
1F
100
AcDbEntity
  8
0
  6
Continuous
 62
     7
370
    25
100
AcDbSpline
210
0.0
220
0.0
230
1.0
 70
     8
 71
     3
 72
     8
 73
     4
 74
     0
 42
0.000000001
 43
0.00000001
 40
1.0
 40
1.0
 40
1.0
 40
1.0
 40
1.102669090141897
 40
1.102669090141897
 40
1.102669090141897
 40
1.102669090141897
 10
34178.24376306615
 20
26288.08798087214
 30
0.0
 10
34178.23463323736
 20
26288.08798087214
 30
0.0
 10
34178.22568381926
 20
26288.08873781266
 30
0.0
 10
34178.21697400366
 20
26288.09019250191
 30
0.0
  0
SPLINE
  5
1C4
330
1F
100
AcDbEntity
  8
0
  6
Continuous
 62
     7
370
    25
100
AcDbSpline
210
0.0
220
0.0
230
1.0
 70
     8
 71
     3
 72
     8
 73
     4
 74
     0
 42
0.000000001
 43
0.00000001
 40
5.897330909833046
 40
5.897330909833046
 40
5.897330909833046
 40
5.897330909833046
 40
6.0
 40
6.0
 40
6.0
 40
6.0
 10
34178.21697400365
 20
26288.09019250191
 30
0.0
 10
34178.20826418803
 20
26288.08873781266
 30
0.0
 10
34178.19931476994
 20
26288.08798087214
 30
0.0
 10
34178.19018494115
 20
26288.08798087214
 30
0.0
  0
SPLINE
  5
1C5
330
1F
100
AcDbEntity
  8
0
  6
Continuous
 62
     7
370
    25
100
AcDbSpline
210
0.0
220
0.0
230
1.0
 70
     8
 71
     3
 72
     8
 73
     4
 74
     0
 42
0.000000001
 43
0.00000001
 40
0.0
 40
0.0
 40
0.0
 40
0.0
 40
1.0
 40
1.0
 40
1.0
 40
1.0
 10
34178.19018494115
 20
26288.08798087214
 30
0.0
 10
34178.10126013646
 20
26288.08798087214
 30
0.0
 10
34178.02945056615
 20
26288.15979044245
 30
0.0
 10
34178.02945056615
 20
26288.24871524714
 30
0.0
  0
LINE
  5
1C6
330
1F
100
AcDbEntity
  8
0
  6
Continuous
 62
     7
370
    25
100
AcDbLine
 10
34178.0294505662
 20
26288.2487152471
 30
0.0
 11
34178.0294505662
 21
26298.2681966925
 31
0.0
  0
LINE
  5
1C7
330
1F
100
AcDbEntity
  8
0
  6
Continuous
 62
     7
370
    25
100
AcDbLine
 10
34178.0294505662
 20
26298.2681966925
 30
0.0
 11
33968.2636497849
 21
26298.2681966925
 31
0.0
  0
SPLINE
  5
1C8
330
1F
100
AcDbEntity
  8
0
  6
Continuous
 62
     7
370
    25
100
AcDbSpline
210
0.0
220
0.0
230
1.0
 70
     8
 71
     3
 72
     8
 73
     4
 74
     0
 42
0.000000001
 43
0.00000001
 40
1.0
 40
1.0
 40
1.0
 40
1.0
 40
1.000663163780924
 40
1.000663163780924
 40
1.000663163780924
 40
1.000663163780924
 10
33968.2636497849
 20
26298.26819669245
 30
0.0
 10
33968.26359081319
 20
26298.26819669245
 30
0.0
 10
33968.26353184901
 20
26298.26819672404
 30
0.0
 10
33968.26347289237
 20
26298.26819678718
 30
0.0
  0
SPLINE
  5
1C9
330
1F
100
AcDbEntity
  8
0
  6
Continuous
 62
     7
370
    25
100
AcDbSpline
210
0.0
220
0.0
230
1.0
 70
     8
 71
     3
 72
     8
 73
     4
 74
     0
 42
0.000000001
 43
0.00000001
 40
121.9907925419664
 40
121.9907925419664
 40
121.9907925419664
 40
121.9907925419664
 40
122.0
 40
122.0
 40
122.0
 40
122.0
 10
33968.26347289237
 20
26298.26819678737
 30
0.0
 10
33968.26340786427
 20
26298.26819672399
 30
0.0
 10
33968.2633428052
 20
26298.26819669245
 30
0.0
 10
33968.26327771458
 20
26298.26819669245
 30
0.0
  0
SPLINE
  5
1CA
330
1F
100
AcDbEntity
  8
0
  6
Continuous
 62
     7
370
    25
100
AcDbSpline
210
0.0
220
0.0
230
1.0
 70
     8
 71
     3
 72
     8
 73
     4
 74
     0
 42
0.000000001
 43
0.00000001
 40
0.0
 40
0.0
 40
0.0
 40
0.0
 40
0.1689874364240516
 40
0.1689874364240516
 40
0.1689874364240516
 40
0.1689874364240516
 10
33968.26327771458
 20
26298.26819669245
 30
0.0
 10
33968.24982242001
 20
26298.26819669245
 30
0.0
 10
33968.23667525392
 20
26298.26988608657
 30
0.0
 10
33968.22406604185
 20
26298.27308532363
 30
0.0
  0
SPLINE
  5
1CB
330
1F
100
AcDbEntity
  8
0
  6
Continuous
 62
     7
370
    25
100
AcDbSpline
210
0.0
220
0.0
230
1.0
 70
     8
 71
     3
 72
     8
 73
     4
 74
     0
 42
0.000000001
 43
0.00000001
 40
1.153667965102725
 40
1.153667965102725
 40
1.153667965102725
 40
1.153667965102725
 40
2.0
 40
2.0
 40
2.0
 40
2.0
 10
33968.2240660418
 20
26298.27308532345
 30
0.0
 10
33968.15435101907
 20
26298.29067051001
 30
0.0
 10
33968.1029154099
 20
26298.35367115655
 30
0.0
 10
33968.1029154099
 20
26298.42893106745
 30
0.0
  0
SPLINE
  5
1CC
330
1F
100
AcDbEntity
  8
0
  6
Continuous
 62
     7
370
    25
100
AcDbSpline
210
0.0
220
0.0
230
1.0
 70
     8
 71
     3
 72
     8
 73
     4
 74
     0
 42
0.000000001
 43
0.00000001
 40
2.0
 40
2.0
 40
2.0
 40
2.0
 40
2.951719539077528
 40
2.951719539077528
 40
2.951719539077528
 40
2.951719539077528
 10
33968.1029154099
 20
26298.42893106745
 30
0.0
 10
33968.1029154099
 20
26298.51356254158
 30
0.0
 10
33968.16795837021
 20
26298.58269154849
 30
0.0
 10
33968.25089563561
 20
26298.5891694329
 30
0.0
  0
LINE
  5
1CD
330
1F
100
AcDbEntity
  8
0
  6
Continuous
 62
     7
370
    25
100
AcDbLine
 10
33968.2508956356
 20
26298.5891694329
 30
0.0
 11
33973.654948613
 21
26299.2846927862
 31
0.0
  0
LINE
  5
1CE
330
1F
100
AcDbEntity
  8
0
  6
Continuous
 62
     7
370
    25
100
AcDbLine
 10
33973.654948613
 20
26299.2846927862
 30
0.0
 11
33979.007924199
 21
26300.1415707159
 31
0.0
  0
LINE
  5
1CF
330
1F
100
AcDbEntity
  8
0
  6
Continuous
 62
     7
370
    25
100
AcDbLine
 10
33979.007924199
 20
26300.1415707159
 30
0.0
 11
33984.3076937302
 21
26301.1588109503
 31
0.0
  0
LINE
  5
1D0
330
1F
100
AcDbEntity
  8
0
  6
Continuous
 62
     7
370
    25
100
AcDbLine
 10
33984.3076937302
 20
26301.1588109503
 30
0.0
 11
33989.6085794724
 21
26302.2835795049
 31
0.0
  0
LINE
  5
1D1
330
1F
100
AcDbEntity
  8
0
  6
Continuous
 62
     7
370
    25
100
AcDbLine
 10
33989.6085794724
 20
26302.2835795049
 30
0.0
 11
33994.908721074
 21
26303.568338294
 31
0.0
  0
LINE
  5
1D2
330
1F
100
AcDbEntity
  8
0
  6
Continuous
 62
     7
370
    25
100
AcDbLine
 10
33994.908721074
 20
26303.568338294
 30
0.0
 11
34000.1020784958
 21
26304.9602533331
 31
0.0
  0
LINE
  5
1D3
330
1F
100
AcDbEntity
  8
0
  6
Continuous
 62
     7
370
    25
100
AcDbLine
 10
34000.1020784958
 20
26304.9602533331
 30
0.0
 11
34005.2950638474
 21
26306.5129027471
 31
0.0
  0
LINE
  5
1D4
330
1F
100
AcDbEntity
  8
0
  6
Continuous
 62
     7
370
    25
100
AcDbLine
 10
34005.2950638474
 20
26306.5129027471
 30
0.0
 11
34010.4891654099
 21
26308.1730804815
 31
0.0
  0
LINE
  5
1D5
330
1F
100
AcDbEntity
  8
0
  6
Continuous
 62
     7
370
    25
100
AcDbLine
 10
34010.4891654099
 20
26308.1730804815
 30
0.0
 11
34015.6285726365
 21
26309.99287638
 31
0.0
  0
LINE
  5
1D6
330
1F
100
AcDbEntity
  8
0
  6
Continuous
 62
     7
370
    25
100
AcDbLine
 10
34015.6285726365
 20
26309.99287638
 30
0.0
 11
34020.7151458787
 21
26311.9209447393
 31
0.0
  0
LINE
  5
1D7
330
1F
100
AcDbEntity
  8
0
  6
Continuous
 62
     7
370
    25
100
AcDbLine
 10
34020.7151458787
 20
26311.9209447393
 30
0.0
 11
34025.745908574
 21
26314.0618373175
 31
0.0
  0
LINE
  5
1D8
330
1F
100
AcDbEntity
  8
0
  6
Continuous
 62
     7
370
    25
100
AcDbLine
 10
34025.745908574
 20
26314.0618373175
 30
0.0
 11
34028.2588714646
 21
26315.2379515753
 31
0.0
  0
LINE
  5
1D9
330
1F
100
AcDbEntity
  8
0
  6
Continuous
 62
     7
370
    25
100
AcDbLine
 10
34028.2588714646
 20
26315.2379515753
 30
0.0
 11
34030.7197445115
 21
26316.4683880987
 31
0.0
  0
LINE
  5
1DA
330
1F
100
AcDbEntity
  8
0
  6
Continuous
 62
     7
370
    25
100
AcDbLine
 10
34030.7197445115
 20
26316.4683880987
 30
0.0
 11
34033.1821058396
 21
26317.7531468878
 31
0.0
  0
LINE
  5
1DB
330
1F
100
AcDbEntity
  8
0
  6
Continuous
 62
     7
370
    25
100
AcDbLine
 10
34033.1821058396
 20
26317.7531468878
 30
0.0
 11
34035.6418626755
 21
26319.1435736456
 31
0.0
  0
LINE
  5
1DC
330
1F
100
AcDbEntity
  8
0
  6
Continuous
 62
     7
370
    25
100
AcDbLine
 10
34035.6418626755
 20
26319.1435736456
 30
0.0
 11
34038.1001312302
 21
26320.6932464971
 31
0.0
  0
LINE
  5
1DD
330
1F
100
AcDbEntity
  8
0
  6
Continuous
 62
     7
370
    25
100
AcDbLine
 10
34038.1001312302
 20
26320.6932464971
 30
0.0
 11
34039.2699202927
 21
26321.5449154424
 31
0.0
  0
LINE
  5
1DE
330
1F
100
AcDbEntity
  8
0
  6
Continuous
 62
     7
370
    25
100
AcDbLine
 10
34039.2699202927
 20
26321.5449154424
 30
0.0
 11
34040.5048216599
 21
26322.4043978643
 31
0.0
  0
LINE
  5
1DF
330
1F
100
AcDbEntity
  8
0
  6
Continuous
 62
     7
370
    25
100
AcDbLine
 10
34040.5048216599
 20
26322.4043978643
 30
0.0
 11
34042.9024427536
 21
26324.4831547003
 31
0.0
  0
LINE
  5
1E0
330
1F
100
AcDbEntity
  8
0
  6
Continuous
 62
     7
370
    25
100
AcDbLine
 10
34042.9024427536
 20
26324.4831547003
 30
0.0
 11
34044.0703714646
 21
26325.7054056768
 31
0.0
  0
LINE
  5
1E1
330
1F
100
AcDbEntity
  8
0
  6
Continuous
 62
     7
370
    25
100
AcDbLine
 10
34044.0703714646
 20
26325.7054056768
 30
0.0
 11
34044.3308206833
 21
26326.01868888
 31
0.0
  0
LINE
  5
1E2
330
1F
100
AcDbEntity
  8
0
  6
Continuous
 62
     7
370
    25
100
AcDbLine
 10
34044.3308206833
 20
26326.01868888
 30
0.0
 11
34045.1274232224
 21
26327.0805775518
 31
0.0
  0
LINE
  5
1E3
330
1F
100
AcDbEntity
  8
0
  6
Continuous
 62
     7
370
    25
100
AcDbLine
 10
34045.1274232224
 20
26327.0805775518
 30
0.0
 11
34045.3856400193
 21
26327.547525794
 31
0.0
  0
LINE
  5
1E4
330
1F
100
AcDbEntity
  8
0
  6
Continuous
 62
     7
370
    25
100
AcDbLine
 10
34045.3856400193
 20
26327.547525794
 30
0.0
 11
34045.6479495896
 21
26328.1253509893
 31
0.0
  0
LINE
  5
1E5
330
1F
100
AcDbEntity
  8
0
  6
Continuous
 62
     7
370
    25
100
AcDbLine
 10
34045.6479495896
 20
26328.1253509893
 30
0.0
 11
34045.7454320115
 21
26328.5264427862
 31
0.0
  0
LINE
  5
1E6
330
1F
100
AcDbEntity
  8
0
  6
Continuous
 62
     7
370
    25
100
AcDbLine
 10
34045.7454320115
 20
26328.5264427862
 30
0.0
 11
34045.9095150193
 21
26329.0205521612
 31
0.0
  0
LINE
  5
1E7
330
1F
100
AcDbEntity
  8
0
  6
Continuous
 62
     7
370
    25
100
AcDbLine
 10
34045.9095150193
 20
26329.0205521612
 30
0.0
 11
34046.0096019333
 21
26329.9518441534
 31
0.0
  0
LINE
  5
1E8
330
1F
100
AcDbEntity
  8
0
  6
Continuous
 62
     7
370
    25
100
AcDbLine
 10
34046.0096019333
 20
26329.9518441534
 30
0.0
 11
34045.9552796677
 21
26330.7268666143
 31
0.0
  0
LINE
  5
1E9
330
1F
100
AcDbEntity
  8
0
  6
Continuous
 62
     7
370
    25
100
AcDbLine
 10
34045.9552796677
 20
26330.7268666143
 30
0.0
 11
34045.7465482224
 21
26331.9227005987
 31
0.0
  0
LINE
  5
1EA
330
1F
100
AcDbEntity
  8
0
  6
Continuous
 62
     7
370
    25
100
AcDbLine
 10
34045.7465482224
 20
26331.9227005987
 30
0.0
 11
34045.540049199
 21
26332.387416419
 31
0.0
  0
LINE
  5
1EB
330
1F
100
AcDbEntity
  8
0
  6
Continuous
 62
     7
370
    25
100
AcDbLine
 10
34045.540049199
 20
26332.387416419
 30
0.0
 11
34045.3755941208
 21
26332.8245990362
 31
0.0
  0
LINE
  5
1EC
330
1F
100
AcDbEntity
  8
0
  6
Continuous
 62
     7
370
    25
100
AcDbLine
 10
34045.3755941208
 20
26332.8245990362
 30
0.0
 11
34045.1783968552
 21
26333.1133255987
 31
0.0
  0
LINE
  5
1ED
330
1F
100
AcDbEntity
  8
0
  6
Continuous
 62
     7
370
    25
100
AcDbLine
 10
34045.1783968552
 20
26333.1133255987
 30
0.0
 11
34044.8468822068
 21
26333.7737504034
 31
0.0
  0
LINE
  5
1EE
330
1F
100
AcDbEntity
  8
0
  6
Continuous
 62
     7
370
    25
100
AcDbLine
 10
34044.8468822068
 20
26333.7737504034
 30
0.0
 11
34044.5354593552
 21
26334.2384662237
 31
0.0
  0
LINE
  5
1EF
330
1F
100
AcDbEntity
  8
0
  6
Continuous
 62
     7
370
    25
100
AcDbLine
 10
34044.5354593552
 20
26334.2384662237
 30
0.0
 11
34043.7976439255
 21
26335.0789730596
 31
0.0
  0
LINE
  5
1F0
330
1F
100
AcDbEntity
  8
0
  6
Continuous
 62
     7
370
    25
100
AcDbLine
 10
34043.7976439255
 20
26335.0789730596
 30
0.0
 11
34043.104104863
 21
26335.8257181768
 31
0.0
  0
LINE
  5
1F1
330
1F
100
AcDbEntity
  8
0
  6
Continuous
 62
     7
370
    25
100
AcDbLine
 10
34043.104104863
 20
26335.8257181768
 30
0.0
 11
34042.4704691208
 21
26336.4061478643
 31
0.0
  0
LINE
  5
1F2
330
1F
100
AcDbEntity
  8
0
  6
Continuous
 62
     7
370
    25
100
AcDbLine
 10
34042.4704691208
 20
26336.4061478643
 30
0.0
 11
34041.295471074
 21
26337.4207836065
 31
0.0
  0
LINE
  5
1F3
330
1F
100
AcDbEntity
  8
0
  6
Continuous
 62
     7
370
    25
100
AcDbLine
 10
34041.295471074
 20
26337.4207836065
 30
0.0
 11
34038.9484515427
 21
26339.1270980596
 31
0.0
  0
LINE
  5
1F4
330
1F
100
AcDbEntity
  8
0
  6
Continuous
 62
     7
370
    25
100
AcDbLine
 10
34038.9484515427
 20
26339.1270980596
 30
0.0
 11
34036.6471966599
 21
26340.7325814581
 31
0.0
  0
LINE
  5
1F5
330
1F
100
AcDbEntity
  8
0
  6
Continuous
 62
     7
370
    25
100
AcDbLine
 10
34036.6471966599
 20
26340.7325814581
 30
0.0
 11
34034.2432503708
 21
26342.2283041143
 31
0.0
  0
LINE
  5
1F6
330
1F
100
AcDbEntity
  8
0
  6
Continuous
 62
     7
370
    25
100
AcDbLine
 10
34034.2432503708
 20
26342.2283041143
 30
0.0
 11
34031.8363275193
 21
26343.6187308721
 31
0.0
  0
LINE
  5
1F7
330
1F
100
AcDbEntity
  8
0
  6
Continuous
 62
     7
370
    25
100
AcDbLine
 10
34031.8363275193
 20
26343.6187308721
 30
0.0
 11
34029.4275443162
 21
26344.9566957159
 31
0.0
  0
LINE
  5
1F8
330
1F
100
AcDbEntity
  8
0
  6
Continuous
 62
     7
370
    25
100
AcDbLine
 10
34029.4275443162
 20
26344.9566957159
 30
0.0
 11
34026.9666712693
 21
26346.2407103643
 31
0.0
  0
LINE
  5
1F9
330
1F
100
AcDbEntity
  8
0
  6
Continuous
 62
     7
370
    25
100
AcDbLine
 10
34026.9666712693
 20
26346.2407103643
 30
0.0
 11
34024.5072865036
 21
26347.4168246221
 31
0.0
  0
LINE
  5
1FA
330
1F
100
AcDbEntity
  8
0
  6
Continuous
 62
     7
370
    25
100
AcDbLine
 10
34024.5072865036
 20
26347.4168246221
 30
0.0
 11
34021.9898587693
 21
26348.5951713018
 31
0.0
  0
LINE
  5
1FB
330
1F
100
AcDbEntity
  8
0
  6
Continuous
 62
     7
370
    25
100
AcDbLine
 10
34021.9898587693
 20
26348.5951713018
 30
0.0
 11
34016.9587240036
 21
26350.7356918096
 31
0.0
  0
LINE
  5
1FC
330
1F
100
AcDbEntity
  8
0
  6
Continuous
 62
     7
370
    25
100
AcDbLine
 10
34016.9587240036
 20
26350.7356918096
 30
0.0
 11
34011.8732669724
 21
26352.7165941534
 31
0.0
  0
LINE
  5
1FD
330
1F
100
AcDbEntity
  8
0
  6
Continuous
 62
     7
370
    25
100
AcDbLine
 10
34011.8732669724
 20
26352.7165941534
 30
0.0
 11
34006.7870658005
 21
26354.5367621221
 31
0.0
  0
LINE
  5
1FE
330
1F
100
AcDbEntity
  8
0
  6
Continuous
 62
     7
370
    25
100
AcDbLine
 10
34006.7870658005
 20
26354.5367621221
 30
0.0
 11
34001.5937083786
 21
26356.2501459112
 31
0.0
  0
LINE
  5
1FF
330
1F
100
AcDbEntity
  8
0
  6
Continuous
 62
     7
370
    25
100
AcDbLine
 10
34001.5937083786
 20
26356.2501459112
 30
0.0
 11
33996.4022113083
 21
26357.7484730596
 31
0.0
  0
LINE
  5
200
330
1F
100
AcDbEntity
  8
0
  6
Continuous
 62
     7
370
    25
100
AcDbLine
 10
33996.4022113083
 20
26357.7484730596
 30
0.0
 11
33991.1016976365
 21
26359.1403880987
 31
0.0
  0
LINE
  5
201
330
1F
100
AcDbEntity
  8
0
  6
Continuous
 62
     7
370
    25
100
AcDbLine
 10
33991.1016976365
 20
26359.1403880987
 30
0.0
 11
33985.8547620896
 21
26360.3715687628
 31
0.0
  0
LINE
  5
202
330
1F
100
AcDbEntity
  8
0
  6
Continuous
 62
     7
370
    25
100
AcDbLine
 10
33985.8547620896
 20
26360.3715687628
 30
0.0
 11
33980.5017865036
 21
26361.4420150518
 31
0.0
  0
LINE
  5
203
330
1F
100
AcDbEntity
  8
0
  6
Continuous
 62
     7
370
    25
100
AcDbLine
 10
33980.5017865036
 20
26361.4420150518
 30
0.0
 11
33975.2005286912
 21
26362.4060492315
 31
0.0
  0
LINE
  5
204
330
1F
100
AcDbEntity
  8
0
  6
Continuous
 62
     7
370
    25
100
AcDbLine
 10
33975.2005286912
 20
26362.4060492315
 30
0.0
 11
33969.7939749802
 21
26363.2093490362
 31
0.0
  0
LINE
  5
205
330
1F
100
AcDbEntity
  8
0
  6
Continuous
 62
     7
370
    25
100
AcDbLine
 10
33969.7939749802
 20
26363.2093490362
 30
0.0
 11
33964.387049199
 21
26363.8515423956
 31
0.0
  0
LINE
  5
206
330
1F
100
AcDbEntity
  8
0
  6
Continuous
 62
     7
370
    25
100
AcDbLine
 10
33964.387049199
 20
26363.8515423956
 30
0.0
 11
33959.0392841488
 21
26364.3862074346
 31
0.0
  0
LINE
  5
207
330
1F
100
AcDbEntity
  8
0
  6
Continuous
 62
     7
370
    25
100
AcDbLine
 10
33959.0392841488
 20
26364.3862074346
 30
0.0
 11
33931.347205449
 21
26364.3862074346
 31
0.0
  0
LINE
  5
208
330
1F
100
AcDbEntity
  8
0
  6
Continuous
 62
     7
370
    25
100
AcDbLine
 10
33931.347205449
 20
26364.3862074346
 30
0.0
 11
33931.347205449
 21
26359.8852728643
 31
0.0
  0
SPLINE
  5
209
330
1F
100
AcDbEntity
  8
0
  6
Continuous
 62
     7
370
    25
100
AcDbSpline
210
0.0
220
0.0
230
1.0
 70
     8
 71
     3
 72
     8
 73
     4
 74
     0
 42
0.000000001
 43
0.00000001
 40
8.0
 40
8.0
 40
8.0
 40
8.0
 40
9.0
 40
9.0
 40
9.0
 40
9.0
 10
33931.34720544897
 20
26359.88527286433
 30
0.0
 10
33931.34720544897
 20
26359.79634805964
 30
0.0
 10
33931.27539587866
 20
26359.72453848933
 30
0.0
 10
33931.18647107396
 20
26359.72453848933
 30
0.0
  0
LINE
  5
20A
330
1F
100
AcDbEntity
  8
0
  6
Continuous
 62
     7
370
    25
100
AcDbLine
 10
33931.186471074
 20
26359.7245384893
 30
0.0
 11
33758.0156458787
 21
26359.7245384893
 31
0.0
  0
LINE
  5
20B
330
1F
100
AcDbEntity
  8
0
  6
Continuous
 62
     7
370
    25
100
AcDbLine
 10
33758.0156458787
 20
26359.7245384893
 30
0.0
 11
33758.0156458787
 21
26355.2239759893
 31
0.0
  0
SPLINE
  5
20C
330
1F
100
AcDbEntity
  8
0
  6
Continuous
 62
     7
370
    25
100
AcDbSpline
210
0.0
220
0.0
230
1.0
 70
     8
 71
     3
 72
     8
 73
     4
 74
     0
 42
0.000000001
 43
0.00000001
 40
8.0
 40
8.0
 40
8.0
 40
8.0
 40
9.0
 40
9.0
 40
9.0
 40
9.0
 10
33758.01564587865
 20
26355.22397598932
 30
0.0
 10
33758.01564587865
 20
26355.13505118464
 30
0.0
 10
33757.94365027318
 20
26355.06324161433
 30
0.0
 10
33757.85491150365
 20
26355.06324161433
 30
0.0
  0
LINE
  5
20D
330
1F
100
AcDbEntity
  8
0
  6
Continuous
 62
     7
370
    25
100
AcDbLine
 10
33757.8549115037
 20
26355.0632416143
 30
0.0
 11
33636.7640701951
 21
26355.0632416143
 31
0.0
  0
LINE
  5
20E
330
1F
100
AcDbEntity
  8
0
  6
Continuous
 62
     7
370
    25
100
AcDbLine
 10
33636.7640701951
 20
26355.0632416143
 30
0.0
 11
33636.7640701951
 21
26326.5338847691
 31
0.0
  0
LINE
  5
20F
330
1F
100
AcDbEntity
  8
0
  6
Continuous
 62
     7
370
    25
100
AcDbLine
 10
33636.7640701951
 20
26326.5338847691
 30
0.0
 11
33808.8895638474
 21
26297.7301830206
 31
0.0
  0
SPLINE
  5
210
330
1F
100
AcDbEntity
  8
0
  6
Continuous
 62
     7
370
    25
100
AcDbSpline
210
0.0
220
0.0
230
1.0
 70
     8
 71
     3
 72
     8
 73
     4
 74
     0
 42
0.000000001
 43
0.00000001
 40
8.0
 40
8.0
 40
8.0
 40
8.0
 40
9.0
 40
9.0
 40
9.0
 40
9.0
 10
33808.8895638474
 20
26297.73018302058
 30
0.0
 10
33808.97216345678
 20
26297.71641641901
 30
0.0
 10
33809.03020642552
 20
26297.6416302862
 30
0.0
 10
33809.0235091599
 20
26297.5582865362
 30
0.0
  0
SPLINE
  5
211
330
1F
100
AcDbEntity
  8
0
  6
Continuous
 62
     7
370
    25
100
AcDbSpline
210
0.0
220
0.0
230
1.0
 70
     8
 71
     3
 72
     8
 73
     4
 74
     0
 42
0.000000001
 43
0.00000001
 40
9.0
 40
9.0
 40
9.0
 40
9.0
 40
10.0
 40
10.0
 40
10.0
 40
10.0
 10
33809.0235091599
 20
26297.5582865362
 30
0.0
 10
33809.01643982396
 20
26297.4749427862
 30
0.0
 10
33808.94686267553
 20
26297.41094669245
 30
0.0
 10
33808.86314685522
 20
26297.41094669245
 30
0.0
  0
LINE
  5
212
330
1F
100
AcDbEntity
  8
0
  6
Continuous
 62
     7
370
    25
100
AcDbLine
 10
33808.8631468552
 20
26297.4109466925
 30
0.0
 11
33634.4066326951
 21
26297.4109466925
 31
0.0
  0
LINE
  5
213
330
1F
100
AcDbEntity
  8
0
  6
Continuous
 62
     7
370
    25
100
AcDbLine
 10
33634.4066326951
 20
26297.4109466925
 30
0.0
 11
33634.4066326951
 21
26243.9381175909
 31
0.0
  0
LINE
  5
214
330
1F
100
AcDbEntity
  8
0
  6
Continuous
 62
     7
370
    25
100
AcDbLine
 10
33634.4066326951
 20
26243.9381175909
 30
0.0
 11
33808.8631468552
 21
26243.9381175909
 31
0.0
  0
SPLINE
  5
215
330
1F
100
AcDbEntity
  8
0
  6
Continuous
 62
     7
370
    25
100
AcDbSpline
210
0.0
220
0.0
230
1.0
 70
     8
 71
     3
 72
     8
 73
     4
 74
     0
 42
0.000000001
 43
0.00000001
 40
7.0
 40
7.0
 40
7.0
 40
7.0
 40
8.0
 40
8.0
 40
8.0
 40
8.0
 10
33808.86314685522
 20
26243.93811759089
 30
0.0
 10
33808.94686267553
 20
26243.93811759089
 30
0.0
 10
33809.01643982396
 20
26243.87412149714
 30
0.0
 10
33809.0235091599
 20
26243.79077774714
 30
0.0
  0
SPLINE
  5
216
330
1F
100
AcDbEntity
  8
0
  6
Continuous
 62
     7
370
    25
100
AcDbSpline
210
0.0
220
0.0
230
1.0
 70
     8
 71
     3
 72
     8
 73
     4
 74
     0
 42
0.000000001
 43
0.00000001
 40
8.0
 40
8.0
 40
8.0
 40
8.0
 40
9.0
 40
9.0
 40
9.0
 40
9.0
 10
33809.0235091599
 20
26243.79077774714
 30
0.0
 10
33809.03020642552
 20
26243.70743399714
 30
0.0
 10
33808.97216345678
 20
26243.63264786433
 30
0.0
 10
33808.8895638474
 20
26243.61888126276
 30
0.0
  0
LINE
  5
217
330
1F
100
AcDbEntity
  8
0
  6
Continuous
 62
     7
370
    25
100
AcDbLine
 10
33808.8895638474
 20
26243.6188812628
 30
0.0
 11
33636.7640701951
 21
26214.8151795143
 31
0.0
  0
LINE
  5
218
330
1F
100
AcDbEntity
  8
0
  6
Continuous
 62
     7
370
    25
100
AcDbLine
 10
33636.7640701951
 20
26214.8151795143
 30
0.0
 11
33636.7640701951
 21
26186.2861947393
 31
0.0
  0
LINE
  5
219
330
1F
100
AcDbEntity
  8
0
  6
Continuous
 62
     7
370
    25
100
AcDbLine
 10
33636.7640701951
 20
26186.2861947393
 30
0.0
 11
33757.8549115037
 21
26186.2861947393
 31
0.0
  0
SPLINE
  5
21A
330
1F
100
AcDbEntity
  8
0
  6
Continuous
 62
     7
370
    25
100
AcDbSpline
210
0.0
220
0.0
230
1.0
 70
     8
 71
     3
 72
     8
 73
     4
 74
     0
 42
0.000000001
 43
0.00000001
 40
6.0
 40
6.0
 40
6.0
 40
6.0
 40
7.0
 40
7.0
 40
7.0
 40
7.0
 10
33757.85491150365
 20
26186.28619473933
 30
0.0
 10
33757.94365027318
 20
26186.28619473933
 30
0.0
 10
33758.01564587865
 20
26186.21438516901
 30
0.0
 10
33758.01564587865
 20
26186.12546036433
 30
0.0
  0
LINE
  5
21B
330
1F
100
AcDbEntity
  8
0
  6
Continuous
 62
     7
370
    25
100
AcDbLine
 10
33758.0156458787
 20
26186.1254603643
 30
0.0
 11
33758.0156458787
 21
26181.624525794
 31
0.0
  0
SPLINE
  5
21C
330
1F
100
AcDbEntity
  8
0
  6
Continuous
 62
     7
370
    25
100
AcDbSpline
210
0.0
220
0.0
230
1.0
 70
     8
 71
     3
 72
     8
 73
     4
 74
     0
 42
0.000000001
 43
0.00000001
 40
1.0
 40
1.0
 40
1.0
 40
1.0
 40
2.0
 40
2.0
 40
2.0
 40
2.0
 10
33883.4465013474
 20
26270.70150723933
 30
0.0
 10
33883.4465013474
 20
26276.47752677057
 30
0.0
 10
33888.14537732396
 20
26281.17640274714
 30
0.0
 10
33893.92139685521
 20
26281.17640274714
 30
0.0
  0
SPLINE
  5
21D
330
1F
100
AcDbEntity
  8
0
  6
Continuous
 62
     7
370
    25
100
AcDbSpline
210
0.0
220
0.0
230
1.0
 70
     8
 71
     3
 72
     8
 73
     4
 74
     0
 42
0.000000001
 43
0.00000001
 40
2.0
 40
2.0
 40
2.0
 40
2.0
 40
2.536591353153511
 40
2.536591353153511
 40
2.536591353153511
 40
2.536591353153511
 10
33893.92139685521
 20
26281.17640274714
 30
0.0
 10
33893.96911313649
 20
26281.17640274714
 30
0.0
 10
33894.01190142354
 20
26281.15572659743
 30
0.0
 10
33894.0413113923
 20
26281.12282462207
 30
0.0
  0
LINE
  5
21E
330
1F
100
AcDbEntity
  8
0
  6
Continuous
 62
     7
370
    25
100
AcDbLine
 10
33894.0413113924
 20
26281.1228246221
 30
0.0
 11
33916.0907264587
 21
26281.1228246221
 31
0.0
  0
SPLINE
  5
21F
330
1F
100
AcDbEntity
  8
0
  6
Continuous
 62
     7
370
    25
100
AcDbSpline
210
0.0
220
0.0
230
1.0
 70
     8
 71
     3
 72
     8
 73
     4
 74
     0
 42
0.000000001
 43
0.00000001
 40
5.463408646845672
 40
5.463408646845672
 40
5.463408646845672
 40
5.463408646845672
 40
6.0
 40
6.0
 40
6.0
 40
6.0
 10
33916.09072645876
 20
26281.12282462207
 30
0.0
 10
33916.12013642752
 20
26281.15572659743
 30
0.0
 10
33916.16292471456
 20
26281.17640274714
 30
0.0
 10
33916.21064099584
 20
26281.17640274714
 30
0.0
  0
SPLINE
  5
220
330
1F
100
AcDbEntity
  8
0
  6
Continuous
 62
     7
370
    25
100
AcDbSpline
210
0.0
220
0.0
230
1.0
 70
     8
 71
     3
 72
     8
 73
     4
 74
     0
 42
0.000000001
 43
0.00000001
 40
6.0
 40
6.0
 40
6.0
 40
6.0
 40
7.0
 40
7.0
 40
7.0
 40
7.0
 10
33916.21064099584
 20
26281.17640274714
 30
0.0
 10
33921.98666052709
 20
26281.17640274714
 30
0.0
 10
33926.68553650365
 20
26276.47752677057
 30
0.0
 10
33926.68553650365
 20
26270.70150723933
 30
0.0
  0
SPLINE
  5
221
330
1F
100
AcDbEntity
  8
0
  6
Continuous
 62
     7
370
    25
100
AcDbSpline
210
0.0
220
0.0
230
1.0
 70
     8
 71
     3
 72
     8
 73
     4
 74
     0
 42
0.000000001
 43
0.00000001
 40
7.0
 40
7.0
 40
7.0
 40
7.0
 40
8.0
 40
8.0
 40
8.0
 40
8.0
 10
33926.68553650365
 20
26270.70150723933
 30
0.0
 10
33926.68553650365
 20
26264.92548770807
 30
0.0
 10
33921.98666052709
 20
26260.22661173152
 30
0.0
 10
33916.21064099584
 20
26260.22661173152
 30
0.0
  0
SPLINE
  5
222
330
1F
100
AcDbEntity
  8
0
  6
Continuous
 62
     7
370
    25
100
AcDbSpline
210
0.0
220
0.0
230
1.0
 70
     8
 71
     3
 72
     8
 73
     4
 74
     0
 42
0.000000001
 43
0.00000001
 40
0.0
 40
0.0
 40
0.0
 40
0.0
 40
0.0507313238802958
 40
0.0507313238802958
 40
0.0507313238802958
 40
0.0507313238802958
 10
33916.21064099584
 20
26260.22661173152
 30
0.0
 10
33916.20612972277
 20
26260.22661173152
 30
0.0
 10
33916.20166249862
 20
26260.22679654545
 30
0.0
 10
33916.19724646459
 20
26260.22715903213
 30
0.0
  0
SPLINE
  5
223
330
1F
100
AcDbEntity
  8
0
  6
Continuous
 62
     7
370
    25
100
AcDbSpline
210
0.0
220
0.0
230
1.0
 70
     8
 71
     3
 72
     8
 73
     4
 74
     0
 42
0.000000001
 43
0.00000001
 40
5.949268676124056
 40
5.949268676124056
 40
5.949268676124056
 40
5.949268676124056
 40
6.0
 40
6.0
 40
6.0
 40
6.0
 10
33916.19724646459
 20
26260.22715903213
 30
0.0
 10
33916.19283043055
 20
26260.22679654545
 30
0.0
 10
33916.1883632064
 20
26260.22661173152
 30
0.0
 10
33916.18385193334
 20
26260.22661173152
 30
0.0
  0
LINE
  5
224
330
1F
100
AcDbEntity
  8
0
  6
Continuous
 62
     7
370
    25
100
AcDbLine
 10
33916.1838519333
 20
26260.2266117315
 30
0.0
 11
33893.8946077927
 21
26260.2266117315
 31
0.0
  0
SPLINE
  5
225
330
1F
100
AcDbEntity
  8
0
  6
Continuous
 62
     7
370
    25
100
AcDbSpline
210
0.0
220
0.0
230
1.0
 70
     8
 71
     3
 72
     8
 73
     4
 74
     0
 42
0.000000001
 43
0.00000001
 40
1.0
 40
1.0
 40
1.0
 40
1.0
 40
1.0143105522772
 40
1.0143105522772
 40
1.0143105522772
 40
1.0143105522772
 10
33893.89460779272
 20
26260.22661173152
 30
0.0
 10
33893.89333522965
 20
26260.22661173151
 30
0.0
 10
33893.89206617165
 20
26260.22662643753
 30
0.0
 10
33893.89080077899
 20
26260.22665568928
 30
0.0
  0
SPLINE
  5
226
330
1F
100
AcDbEntity
  8
0
  6
Continuous
 62
     7
370
    25
100
AcDbSpline
210
0.0
220
0.0
230
1.0
 70
     8
 71
     3
 72
     8
 73
     4
 74
     0
 42
0.000000001
 43
0.00000001
 40
0.0017662785028299
 40
0.0017662785028299
 40
0.0017662785028299
 40
0.0017662785028299
 40
1.0
 40
1.0
 40
1.0
 40
1.0
 10
33893.89080077899
 20
26260.22665568936
 30
0.0
 10
33888.12879293598
 20
26260.24321413917
 30
0.0
 10
33883.4465013474
 20
26264.93568976721
 30
0.0
 10
33883.4465013474
 20
26270.70150723933
 30
0.0
  0
LINE
  5
227
330
1F
100
AcDbEntity
  8
0
  6
Continuous
 62
     7
370
    25
100
AcDbLine
 10
34224.8809933768
 20
26332.585790154
 30
0.0
 11
34224.8809933768
 21
26267.3786075368
 31
0.0
  0
LINE
  5
228
330
1F
100
AcDbEntity
  8
0
  6
Continuous
 62
     7
370
    25
100
AcDbLine
 10
34224.8809933768
 20
26267.3786075368
 30
0.0
 11
34412.1968156424
 21
26267.3786075368
 31
0.0
  0
LINE
  5
229
330
1F
100
AcDbEntity
  8
0
  6
Continuous
 62
     7
370
    25
100
AcDbLine
 10
34412.1968156424
 20
26267.3786075368
 30
0.0
 11
34412.1968156424
 21
26332.585790154
 31
0.0
  0
LINE
  5
22A
330
1F
100
AcDbEntity
  8
0
  6
Continuous
 62
     7
370
    25
100
AcDbLine
 10
34412.1968156424
 20
26332.585790154
 30
0.0
 11
34224.8809933768
 21
26332.585790154
 31
0.0
  0
LINE
  5
22B
330
1F
100
AcDbEntity
  8
0
  6
Continuous
 62
     7
370
    25
100
AcDbLine
 10
34241.5706026988
 20
26261.2784661906
 30
0.0
 11
34241.5706026988
 21
26246.972362675
 31
0.0
  0
SPLINE
  5
22C
330
1F
100
AcDbEntity
  8
0
  6
Continuous
 62
     7
370
    25
100
AcDbSpline
210
0.0
220
0.0
230
1.0
 70
     8
 71
     3
 72
     8
 73
     4
 74
     0
 42
0.000000001
 43
0.00000001
 40
4.0
 40
4.0
 40
4.0
 40
4.0
 40
5.0
 40
5.0
 40
5.0
 40
5.0
 10
34241.57060269883
 20
26246.97236267502
 30
0.0
 10
34241.57060269883
 20
26246.90762244064
 30
0.0
 10
34241.53153531603
 20
26246.84883533126
 30
0.0
 10
34241.47181803087
 20
26246.82390662033
 30
0.0
  0
LINE
  5
22D
330
1F
100
AcDbEntity
  8
0
  6
Continuous
 62
     7
370
    25
100
AcDbLine
 10
34241.4718180309
 20
26246.8239066203
 30
0.0
 11
34230.2652462535
 21
26242.150331425
 31
0.0
  0
LINE
  5
22E
330
1F
100
AcDbEntity
  8
0
  6
Continuous
 62
     7
370
    25
100
AcDbLine
 10
34230.2652462535
 20
26242.150331425
 30
0.0
 11
34230.2652462535
 21
26168.8528519328
 31
0.0
  0
LINE
  5
22F
330
1F
100
AcDbEntity
  8
0
  6
Continuous
 62
     7
370
    25
100
AcDbLine
 10
34230.2652462535
 20
26168.8528519328
 30
0.0
 11
34263.8600328746
 21
26168.8528519328
 31
0.0
  0
LINE
  5
230
330
1F
100
AcDbEntity
  8
0
  6
Continuous
 62
     7
370
    25
100
AcDbLine
 10
34263.8600328746
 20
26168.8528519328
 30
0.0
 11
34263.8600328746
 21
26261.2784661906
 31
0.0
  0
LINE
  5
231
330
1F
100
AcDbEntity
  8
0
  6
Continuous
 62
     7
370
    25
100
AcDbLine
 10
34263.8600328746
 20
26261.2784661906
 30
0.0
 11
34241.5706026988
 21
26261.2784661906
 31
0.0
  0
LINE
  5
232
330
1F
100
AcDbEntity
  8
0
  6
Continuous
 62
     7
370
    25
100
AcDbLine
 10
34320.8315517338
 20
26232.9289312606
 30
0.0
 11
34284.3599510698
 21
26192.4103709818
 31
0.0
  0
SPLINE
  5
233
330
1F
100
AcDbEntity
  8
0
  6
Continuous
 62
     7
370
    25
100
AcDbSpline
210
0.0
220
0.0
230
1.0
 70
     8
 71
     3
 72
     8
 73
     4
 74
     0
 42
0.000000001
 43
0.00000001
 40
3.001991455046701
 40
3.001991455046701
 40
3.001991455046701
 40
3.001991455046701
 40
3.998008705552968
 40
3.998008705552968
 40
3.998008705552968
 40
3.998008705552968
 10
34284.3599510698
 20
26192.41037098182
 30
0.0
 10
34305.19753051078
 20
26173.75949199128
 30
0.0
 10
34336.51935057758
 20
26173.76023175635
 30
0.0
 10
34357.35692663756
 20
26192.41038442261
 30
0.0
  0
LINE
  5
234
330
1F
100
AcDbEntity
  8
0
  6
Continuous
 62
     7
370
    25
100
AcDbLine
 10
34357.3569266376
 20
26192.4103844226
 30
0.0
 11
34320.8315517338
 21
26232.9289312606
 31
0.0
  0
LINE
  5
235
330
1F
100
AcDbEntity
  8
0
  6
Continuous
 62
     7
370
    25
100
AcDbLine
 10
34277.4232929536
 20
26260.0549852139
 30
0.0
 11
34277.4232929536
 21
26250.9377742764
 31
0.0
  0
LINE
  5
236
330
1F
100
AcDbEntity
  8
0
  6
Continuous
 62
     7
370
    25
100
AcDbLine
 10
34277.4232929536
 20
26250.9377742764
 30
0.0
 11
34305.6985903168
 21
26236.5334441983
 31
0.0
  0
LINE
  5
237
330
1F
100
AcDbEntity
  8
0
  6
Continuous
 62
     7
370
    25
100
AcDbLine
 10
34305.6985903168
 20
26236.5334441983
 30
0.0
 11
34359.4008007661
 21
26236.5334441983
 31
0.0
  0
LINE
  5
238
330
1F
100
AcDbEntity
  8
0
  6
Continuous
 62
     7
370
    25
100
AcDbLine
 10
34359.4008007661
 20
26236.5334441983
 30
0.0
 11
34359.4008007661
 21
26250.1393113858
 31
0.0
  0
LINE
  5
239
330
1F
100
AcDbEntity
  8
0
  6
Continuous
 62
     7
370
    25
100
AcDbLine
 10
34359.4008007661
 20
26250.1393113858
 30
0.0
 11
34333.5990268403
 21
26260.0549852139
 31
0.0
  0
LINE
  5
23A
330
1F
100
AcDbEntity
  8
0
  6
Continuous
 62
     7
370
    25
100
AcDbLine
 10
34333.5990268403
 20
26260.0549852139
 30
0.0
 11
34277.4232929536
 21
26260.0549852139
 31
0.0
  0
LINE
  5
23B
330
1F
100
AcDbEntity
  8
0
  6
Continuous
 62
     7
370
    25
100
AcDbLine
 10
34395.4651437121
 20
26406.8167080127
 30
0.0
 11
34307.758869298
 21
26406.8167080127
 31
0.0
  0
LINE
  5
23C
330
1F
100
AcDbEntity
  8
0
  6
Continuous
 62
     7
370
    25
100
AcDbLine
 10
34307.758869298
 20
26406.8167080127
 30
0.0
 11
34296.8821378527
 21
26341.4491630908
 31
0.0
  0
LINE
  5
23D
330
1F
100
AcDbEntity
  8
0
  6
Continuous
 62
     7
370
    25
100
AcDbLine
 10
34296.8821378527
 20
26341.4491630908
 30
0.0
 11
34406.6086495715
 21
26341.4491630908
 31
0.0
  0
LINE
  5
23E
330
1F
100
AcDbEntity
  8
0
  6
Continuous
 62
     7
370
    25
100
AcDbLine
 10
34406.6086495715
 20
26341.4491630908
 30
0.0
 11
34395.4651437121
 21
26406.8167080127
 31
0.0
  0
LINE
  5
23F
330
1F
100
AcDbEntity
  8
0
  6
Continuous
 62
     7
370
    25
100
AcDbLine
 10
34351.4766793289
 20
26491.2568359644
 30
0.0
 11
34318.3799088211
 21
26491.2560918238
 31
0.0
  0
LINE
  5
240
330
1F
100
AcDbEntity
  8
0
  6
Continuous
 62
     7
370
    25
100
AcDbLine
 10
34318.3799088211
 20
26491.2560918238
 30
0.0
 11
34318.3799088211
 21
26433.9792158472
 31
0.0
  0
LINE
  5
241
330
1F
100
AcDbEntity
  8
0
  6
Continuous
 62
     7
370
    25
100
AcDbLine
 10
34318.3799088211
 20
26433.9792158472
 30
0.0
 11
34351.4859810867
 21
26433.9792158472
 31
0.0
  0
LINE
  5
242
330
1F
100
AcDbEntity
  8
0
  6
Continuous
 62
     7
370
    25
100
AcDbLine
 10
34351.4859810867
 20
26433.9792158472
 30
0.0
 11
34356.998946907
 21
26434.4074687769
 31
0.0
  0
LINE
  5
243
330
1F
100
AcDbEntity
  8
0
  6
Continuous
 62
     7
370
    25
100
AcDbLine
 10
34356.998946907
 20
26434.4074687769
 30
0.0
 11
34359.7820328445
 21
26434.6749873316
 31
0.0
  0
LINE
  5
244
330
1F
100
AcDbEntity
  8
0
  6
Continuous
 62
     7
370
    25
100
AcDbLine
 10
34359.7820328445
 20
26434.6749873316
 30
0.0
 11
34362.5617701492
 21
26435.049290066
 31
0.0
  0
LINE
  5
245
330
1F
100
AcDbEntity
  8
0
  6
Continuous
 62
     7
370
    25
100
AcDbLine
 10
34362.5617701492
 20
26435.049290066
 30
0.0
 11
34368.0788287429
 21
26435.852961941
 31
0.0
  0
LINE
  5
246
330
1F
100
AcDbEntity
  8
0
  6
Continuous
 62
     7
370
    25
100
AcDbLine
 10
34368.0788287429
 20
26435.852961941
 30
0.0
 11
34373.5947711257
 21
26436.7630459254
 31
0.0
  0
LINE
  5
247
330
1F
100
AcDbEntity
  8
0
  6
Continuous
 62
     7
370
    25
100
AcDbLine
 10
34373.5947711257
 20
26436.7630459254
 30
0.0
 11
34379.0537867507
 21
26437.8870703394
 31
0.0
  0
LINE
  5
248
330
1F
100
AcDbEntity
  8
0
  6
Continuous
 62
     7
370
    25
100
AcDbLine
 10
34379.0537867507
 20
26437.8870703394
 30
0.0
 11
34384.4603404617
 21
26439.1718291285
 31
0.0
  0
LINE
  5
249
330
1F
100
AcDbEntity
  8
0
  6
Continuous
 62
     7
370
    25
100
AcDbLine
 10
34384.4603404617
 20
26439.1718291285
 30
0.0
 11
34389.8691265945
 21
26440.5641162379
 31
0.0
  0
LINE
  5
24A
330
1F
100
AcDbEntity
  8
0
  6
Continuous
 62
     7
370
    25
100
AcDbLine
 10
34389.8691265945
 20
26440.5641162379
 30
0.0
 11
34395.2224742507
 21
26442.1167656519
 31
0.0
  0
LINE
  5
24B
330
1F
100
AcDbEntity
  8
0
  6
Continuous
 62
     7
370
    25
100
AcDbLine
 10
34395.2224742507
 20
26442.1167656519
 30
0.0
 11
34400.5237320632
 21
26443.7769433863
 31
0.0
  0
LINE
  5
24C
330
1F
100
AcDbEntity
  8
0
  6
Continuous
 62
     7
370
    25
100
AcDbLine
 10
34400.5237320632
 20
26443.7769433863
 30
0.0
 11
34405.8238736648
 21
26445.5974834254
 31
0.0
  0
LINE
  5
24D
330
1F
100
AcDbEntity
  8
0
  6
Continuous
 62
     7
370
    25
100
AcDbLine
 10
34405.8238736648
 20
26445.5974834254
 30
0.0
 11
34411.0161148757
 21
26447.5780136988
 31
0.0
  0
LINE
  5
24E
330
1F
100
AcDbEntity
  8
0
  6
Continuous
 62
     7
370
    25
100
AcDbLine
 10
34411.0161148757
 20
26447.5780136988
 30
0.0
 11
34413.583400032
 21
26448.6477158472
 31
0.0
  0
LINE
  5
24F
330
1F
100
AcDbEntity
  8
0
  6
Continuous
 62
     7
370
    25
100
AcDbLine
 10
34413.583400032
 20
26448.6477158472
 30
0.0
 11
34416.1525455398
 21
26449.7717402613
 31
0.0
  0
LINE
  5
250
330
1F
100
AcDbEntity
  8
0
  6
Continuous
 62
     7
370
    25
100
AcDbLine
 10
34416.1525455398
 20
26449.7717402613
 30
0.0
 11
34418.6699732742
 21
26450.8961367457
 31
0.0
  0
LINE
  5
251
330
1F
100
AcDbEntity
  8
0
  6
Continuous
 62
     7
370
    25
100
AcDbLine
 10
34418.6699732742
 20
26450.8961367457
 30
0.0
 11
34421.1829361648
 21
26452.1262011988
 31
0.0
  0
LINE
  5
252
330
1F
100
AcDbEntity
  8
0
  6
Continuous
 62
     7
370
    25
100
AcDbLine
 10
34421.1829361648
 20
26452.1262011988
 30
0.0
 11
34423.6438092117
 21
26453.4102158472
 31
0.0
  0
LINE
  5
253
330
1F
100
AcDbEntity
  8
0
  6
Continuous
 62
     7
370
    25
100
AcDbLine
 10
34423.6438092117
 20
26453.4102158472
 30
0.0
 11
34426.0488717117
 21
26454.8002705347
 31
0.0
  0
LINE
  5
254
330
1F
100
AcDbEntity
  8
0
  6
Continuous
 62
     7
370
    25
100
AcDbLine
 10
34426.0488717117
 20
26454.8002705347
 30
0.0
 11
34428.4003560867
 21
26456.2967373316
 31
0.0
  0
LINE
  5
255
330
1F
100
AcDbEntity
  8
0
  6
Continuous
 62
     7
370
    25
100
AcDbLine
 10
34428.4003560867
 20
26456.2967373316
 30
0.0
 11
34429.5184273757
 21
26457.0959443629
 31
0.0
  0
LINE
  5
256
330
1F
100
AcDbEntity
  8
0
  6
Continuous
 62
     7
370
    25
100
AcDbLine
 10
34429.5184273757
 20
26457.0959443629
 30
0.0
 11
34430.6394752273
 21
26457.9502178004
 31
0.0
  0
LINE
  5
257
330
1F
100
AcDbEntity
  8
0
  6
Continuous
 62
     7
370
    25
100
AcDbLine
 10
34430.6394752273
 20
26457.9502178004
 30
0.0
 11
34431.704712532
 21
26458.8554648707
 31
0.0
  0
LINE
  5
258
330
1F
100
AcDbEntity
  8
0
  6
Continuous
 62
     7
370
    25
100
AcDbLine
 10
34431.704712532
 20
26458.8554648707
 30
0.0
 11
34432.7163717117
 21
26459.814290066
 31
0.0
  0
LINE
  5
259
330
1F
100
AcDbEntity
  8
0
  6
Continuous
 62
     7
370
    25
100
AcDbLine
 10
34432.7163717117
 20
26459.814290066
 30
0.0
 11
34433.8087701492
 21
26461.1150478785
 31
0.0
  0
LINE
  5
25A
330
1F
100
AcDbEntity
  8
0
  6
Continuous
 62
     7
370
    25
100
AcDbLine
 10
34433.8087701492
 20
26461.1150478785
 30
0.0
 11
34433.9066246414
 21
26461.4093554957
 31
0.0
  0
LINE
  5
25B
330
1F
100
AcDbEntity
  8
0
  6
Continuous
 62
     7
370
    25
100
AcDbLine
 10
34433.9066246414
 20
26461.4093554957
 30
0.0
 11
34433.9501568679
 21
26461.6813388941
 31
0.0
  0
LINE
  5
25C
330
1F
100
AcDbEntity
  8
0
  6
Continuous
 62
     7
370
    25
100
AcDbLine
 10
34433.9501568679
 20
26461.6813388941
 30
0.0
 11
34433.9029039382
 21
26462.0121094019
 31
0.0
  0
LINE
  5
25D
330
1F
100
AcDbEntity
  8
0
  6
Continuous
 62
     7
370
    25
100
AcDbLine
 10
34433.9029039382
 20
26462.0121094019
 30
0.0
 11
34433.6428267898
 21
26462.636071316
 31
0.0
  0
LINE
  5
25E
330
1F
100
AcDbEntity
  8
0
  6
Continuous
 62
     7
370
    25
100
AcDbLine
 10
34433.6428267898
 20
26462.636071316
 30
0.0
 11
34433.2845230789
 21
26463.1413428004
 31
0.0
  0
LINE
  5
25F
330
1F
100
AcDbEntity
  8
0
  6
Continuous
 62
     7
370
    25
100
AcDbLine
 10
34433.2845230789
 20
26463.1413428004
 30
0.0
 11
34432.3323951492
 21
26464.1980224879
 31
0.0
  0
LINE
  5
260
330
1F
100
AcDbEntity
  8
0
  6
Continuous
 62
     7
370
    25
100
AcDbLine
 10
34432.3323951492
 20
26464.1980224879
 30
0.0
 11
34431.2798082351
 21
26465.0374131129
 31
0.0
  0
LINE
  5
261
330
1F
100
AcDbEntity
  8
0
  6
Continuous
 62
     7
370
    25
100
AcDbLine
 10
34431.2798082351
 20
26465.0374131129
 30
0.0
 11
34430.1572721023
 21
26465.8920586207
 31
0.0
  0
LINE
  5
262
330
1F
100
AcDbEntity
  8
0
  6
Continuous
 62
     7
370
    25
100
AcDbLine
 10
34430.1572721023
 20
26465.8920586207
 30
0.0
 11
34427.9088512039
 21
26467.5514922144
 31
0.0
  0
LINE
  5
263
330
1F
100
AcDbEntity
  8
0
  6
Continuous
 62
     7
370
    25
100
AcDbLine
 10
34427.9088512039
 20
26467.5514922144
 30
0.0
 11
34425.6128053054
 21
26469.04647073
 31
0.0
  0
LINE
  5
264
330
1F
100
AcDbEntity
  8
0
  6
Continuous
 62
     7
370
    25
100
AcDbLine
 10
34425.6128053054
 20
26469.04647073
 30
0.0
 11
34423.2069986648
 21
26470.4901035425
 31
0.0
  0
LINE
  5
265
330
1F
100
AcDbEntity
  8
0
  6
Continuous
 62
     7
370
    25
100
AcDbLine
 10
34423.2069986648
 20
26470.4901035425
 30
0.0
 11
34420.7982154617
 21
26471.8816465113
 31
0.0
  0
LINE
  5
266
330
1F
100
AcDbEntity
  8
0
  6
Continuous
 62
     7
370
    25
100
AcDbLine
 10
34420.7982154617
 20
26471.8816465113
 30
0.0
 11
34418.3395748367
 21
26473.1641728785
 31
0.0
  0
LINE
  5
267
330
1F
100
AcDbEntity
  8
0
  6
Continuous
 62
     7
370
    25
100
AcDbLine
 10
34418.3395748367
 20
26473.1641728785
 30
0.0
 11
34413.3065797195
 21
26475.6272783472
 31
0.0
  0
LINE
  5
268
330
1F
100
AcDbEntity
  8
0
  6
Continuous
 62
     7
370
    25
100
AcDbLine
 10
34413.3065797195
 20
26475.6272783472
 30
0.0
 11
34410.7411549148
 21
26476.7494424097
 31
0.0
  0
LINE
  5
269
330
1F
100
AcDbEntity
  8
0
  6
Continuous
 62
     7
370
    25
100
AcDbLine
 10
34410.7411549148
 20
26476.7494424097
 30
0.0
 11
34405.6010035476
 21
26478.8375010035
 31
0.0
  0
LINE
  5
26A
330
1F
100
AcDbEntity
  8
0
  6
Continuous
 62
     7
370
    25
100
AcDbLine
 10
34405.6010035476
 20
26478.8375010035
 30
0.0
 11
34400.4072740554
 21
26480.8184033472
 31
0.0
  0
LINE
  5
26B
330
1F
100
AcDbEntity
  8
0
  6
Continuous
 62
     7
370
    25
100
AcDbLine
 10
34400.4072740554
 20
26480.8184033472
 30
0.0
 11
34395.1089928054
 21
26482.5842490504
 31
0.0
  0
LINE
  5
26C
330
1F
100
AcDbEntity
  8
0
  6
Continuous
 62
     7
370
    25
100
AcDbLine
 10
34395.1089928054
 20
26482.5842490504
 30
0.0
 11
34389.7545289382
 21
26484.2440547144
 31
0.0
  0
LINE
  5
26D
330
1F
100
AcDbEntity
  8
0
  6
Continuous
 62
     7
370
    25
100
AcDbLine
 10
34389.7545289382
 20
26484.2440547144
 30
0.0
 11
34384.4019254226
 21
26485.6895478785
 31
0.0
  0
LINE
  5
26E
330
1F
100
AcDbEntity
  8
0
  6
Continuous
 62
     7
370
    25
100
AcDbLine
 10
34384.4019254226
 20
26485.6895478785
 30
0.0
 11
34378.9938834304
 21
26487.0282568629
 31
0.0
  0
LINE
  5
26F
330
1F
100
AcDbEntity
  8
0
  6
Continuous
 62
     7
370
    25
100
AcDbLine
 10
34378.9938834304
 20
26487.0282568629
 30
0.0
 11
34373.5333795242
 21
26488.2058594019
 31
0.0
  0
LINE
  5
270
330
1F
100
AcDbEntity
  8
0
  6
Continuous
 62
     7
370
    25
100
AcDbLine
 10
34373.5333795242
 20
26488.2058594019
 30
0.0
 11
34368.0207857742
 21
26489.1687773707
 31
0.0
  0
LINE
  5
271
330
1F
100
AcDbEntity
  8
0
  6
Continuous
 62
     7
370
    25
100
AcDbLine
 10
34368.0207857742
 20
26489.1687773707
 30
0.0
 11
34362.5584215164
 21
26490.0256553004
 31
0.0
  0
LINE
  5
272
330
1F
100
AcDbEntity
  8
0
  6
Continuous
 62
     7
370
    25
100
AcDbLine
 10
34362.5584215164
 20
26490.0256553004
 30
0.0
 11
34356.9911334304
 21
26490.7214267847
 31
0.0
  0
LINE
  5
273
330
1F
100
AcDbEntity
  8
0
  6
Continuous
 62
     7
370
    25
100
AcDbLine
 10
34356.9911334304
 20
26490.7214267847
 30
0.0
 11
34351.4766793289
 21
26491.2568359644
 31
0.0
  0
LINE
  5
274
330
1F
100
AcDbEntity
  8
0
  6
Continuous
 62
     7
370
    25
100
AcDbLine
 10
34444.9371791662
 20
26295.0458765291
 30
0.0
 11
34440.4537426653
 21
26294.6536266616
 31
0.0
  0
SPLINE
  5
275
330
1F
100
AcDbEntity
  8
0
  6
Continuous
 62
     7
370
    25
100
AcDbSpline
210
0.0
220
0.0
230
1.0
 70
     8
 71
     3
 72
     8
 73
     4
 74
     0
 42
0.000000001
 43
0.00000001
 40
5.0
 40
5.0
 40
5.0
 40
5.0
 40
6.0
 40
6.0
 40
6.0
 40
6.0
 10
34440.45374266527
 20
26294.65362666158
 30
0.0
 10
34440.3651562463
 20
26294.64587635419
 30
0.0
 10
34440.28734510262
 20
26294.7113393782
 30
0.0
 10
34440.27961100925
 20
26294.79974046992
 30
0.0
  0
LINE
  5
276
330
1F
100
AcDbEntity
  8
0
  6
Continuous
 62
     7
370
    25
100
AcDbLine
 10
34440.2796110093
 20
26294.7997404699
 30
0.0
 11
34436.9421489957
 21
26332.9471058431
 31
0.0
  0
LINE
  5
277
330
1F
100
AcDbEntity
  8
0
  6
Continuous
 62
     7
370
    25
100
AcDbLine
 10
34436.9421489957
 20
26332.9471058431
 30
0.0
 11
34413.8292742836
 21
26168.7514249968
 31
0.0
  0
SPLINE
  5
278
330
1F
100
AcDbEntity
  8
0
  6
Continuous
 62
     7
370
    25
100
AcDbSpline
210
0.0
220
0.0
230
1.0
 70
     8
 71
     3
 72
     8
 73
     4
 74
     0
 42
0.000000001
 43
0.00000001
 40
2.583003532763864
 40
2.583003532763864
 40
2.583003532763864
 40
2.583003532763864
 40
3.0
 40
3.0
 40
3.0
 40
3.0
 10
34413.82927428361
 20
26168.75142499682
 30
0.0
 10
34413.84621107001
 20
26168.72149049057
 30
0.0
 10
34413.8539510686
 20
26168.68609291029
 30
0.0
 10
34413.84946741565
 20
26168.65011298637
 30
0.0
  0
SPLINE
  5
279
330
1F
100
AcDbEntity
  8
0
  6
Continuous
 62
     7
370
    25
100
AcDbSpline
210
0.0
220
0.0
230
1.0
 70
     8
 71
     3
 72
     8
 73
     4
 74
     0
 42
0.000000001
 43
0.00000001
 40
3.0
 40
3.0
 40
3.0
 40
3.0
 40
4.0
 40
4.0
 40
4.0
 40
4.0
 10
34413.84946741565
 20
26168.65011298637
 30
0.0
 10
34413.65729793641
 20
26167.27771271609
 30
0.0
 10
34414.04682570603
 20
26165.87347598
 30
0.0
 10
34414.91931020579
 20
26164.79758701823
 30
0.0
  0
SPLINE
  5
27A
330
1F
100
AcDbEntity
  8
0
  6
Continuous
 62
     7
370
    25
100
AcDbSpline
210
0.0
220
0.0
230
1.0
 70
     8
 71
     3
 72
     8
 73
     4
 74
     0
 42
0.000000001
 43
0.00000001
 40
4.0
 40
4.0
 40
4.0
 40
4.0
 40
4.966779921745326
 40
4.966779921745326
 40
4.966779921745326
 40
4.966779921745326
 10
34414.91931020579
 20
26164.79758701823
 30
0.0
 10
34415.7632160697
 20
26163.75693301082
 30
0.0
 10
34416.99992060262
 20
26163.09449699884
 30
0.0
 10
34418.32993068976
 20
26162.96615373831
 30
0.0
  0
SPLINE
  5
27B
330
1F
100
AcDbEntity
  8
0
  6
Continuous
 62
     7
370
    25
100
AcDbSpline
210
0.0
220
0.0
230
1.0
 70
     8
 71
     3
 72
     8
 73
     4
 74
     0
 42
0.000000001
 43
0.00000001
 40
1.55671124671806
 40
1.55671124671806
 40
1.55671124671806
 40
1.55671124671806
 40
2.0
 40
2.0
 40
2.0
 40
2.0
 10
34418.32993068976
 20
26162.96615373831
 30
0.0
 10
34418.35941930937
 20
26162.9876942451
 30
0.0
 10
34418.39637019875
 20
26162.99936963488
 30
0.0
 10
34418.43567851595
 20
26162.99668277651
 30
0.0
  0
LINE
  5
27C
330
1F
100
AcDbEntity
  8
0
  6
Continuous
 62
     7
370
    25
100
AcDbLine
 10
34418.4356785159
 20
26162.9966827765
 30
0.0
 11
34452.0124738605
 21
26160.6925044188
 31
0.0
  0
LINE
  5
27D
330
1F
100
AcDbEntity
  8
0
  6
Continuous
 62
     7
370
    25
100
AcDbLine
 10
34452.0124738605
 20
26160.6925044188
 30
0.0
 11
34450.3290357513
 21
26179.9342900564
 31
0.0
  0
SPLINE
  5
27E
330
1F
100
AcDbEntity
  8
0
  6
Continuous
 62
     7
370
    25
100
AcDbSpline
210
0.0
220
0.0
230
1.0
 70
     8
 71
     3
 72
     8
 73
     4
 74
     0
 42
0.000000001
 43
0.00000001
 40
4.0
 40
4.0
 40
4.0
 40
4.0
 40
5.0
 40
5.0
 40
5.0
 40
5.0
 10
34450.32903575125
 20
26179.93429005641
 30
0.0
 10
34450.32130165788
 20
26180.02269114814
 30
0.0
 10
34450.38656314062
 20
26180.10067140502
 30
0.0
 10
34450.47514955958
 20
26180.10842171243
 30
0.0
  0
LINE
  5
27F
330
1F
100
AcDbEntity
  8
0
  6
Continuous
 62
     7
370
    25
100
AcDbLine
 10
34450.4751495596
 20
26180.1084217124
 30
0.0
 11
34454.9585860605
 21
26180.5006715799
 31
0.0
  0
LINE
  5
280
330
1F
100
AcDbEntity
  8
0
  6
Continuous
 62
     7
370
    25
100
AcDbLine
 10
34454.9585860605
 20
26180.5006715799
 30
0.0
 11
34451.4001896934
 21
26221.1733281705
 31
0.0
  0
LINE
  5
281
330
1F
100
AcDbEntity
  8
0
  6
Continuous
 62
     7
370
    25
100
AcDbLine
 10
34451.4001896934
 20
26221.1733281705
 30
0.0
 11
34446.9167531924
 21
26220.781078303
 31
0.0
  0
SPLINE
  5
282
330
1F
100
AcDbEntity
  8
0
  6
Continuous
 62
     7
370
    25
100
AcDbSpline
210
0.0
220
0.0
230
1.0
 70
     8
 71
     3
 72
     8
 73
     4
 74
     0
 42
0.000000001
 43
0.00000001
 40
5.0
 40
5.0
 40
5.0
 40
5.0
 40
6.0
 40
6.0
 40
6.0
 40
6.0
 10
34446.91675319242
 20
26220.78107830304
 30
0.0
 10
34446.82816677346
 20
26220.77332799564
 30
0.0
 10
34446.75035562977
 20
26220.83879101965
 30
0.0
 10
34446.7426215364
 20
26220.92719211138
 30
0.0
  0
LINE
  5
283
330
1F
100
AcDbEntity
  8
0
  6
Continuous
 62
     7
370
    25
100
AcDbLine
 10
34446.7426215364
 20
26220.9271921114
 30
0.0
 11
34443.8660252241
 21
26253.806838415
 31
0.0
  0
SPLINE
  5
284
330
1F
100
AcDbEntity
  8
0
  6
Continuous
 62
     7
370
    25
100
AcDbSpline
210
0.0
220
0.0
230
1.0
 70
     8
 71
     3
 72
     8
 73
     4
 74
     0
 42
0.000000001
 43
0.00000001
 40
1.0
 40
1.0
 40
1.0
 40
1.0
 40
2.0
 40
2.0
 40
2.0
 40
2.0
 10
34443.8660252241
 20
26253.80683841496
 30
0.0
 10
34443.85829113072
 20
26253.89523950668
 30
0.0
 10
34443.92355261347
 20
26253.97321976357
 30
0.0
 10
34444.01213903243
 20
26253.98097007097
 30
0.0
  0
LINE
  5
285
330
1F
100
AcDbEntity
  8
0
  6
Continuous
 62
     7
370
    25
100
AcDbLine
 10
34444.0121390324
 20
26253.980970071
 30
0.0
 11
34448.4955755334
 21
26254.3732199384
 31
0.0
  0
LINE
  5
286
330
1F
100
AcDbEntity
  8
0
  6
Continuous
 62
     7
370
    25
100
AcDbLine
 10
34448.4955755334
 20
26254.3732199384
 30
0.0
 11
34444.9371791662
 21
26295.0458765291
 31
0.0
  0
ENDSEC
  0
SECTION
  2
OBJECTS
  0
DICTIONARY
  5
C
330
0
100
AcDbDictionary
281
     1
  3
ACAD_GROUP
350
D
  3
ACAD_LAYOUT
350
1A
  3
ACAD_MLINESTYLE
350
17
  3
ACAD_PLOTSETTINGS
350
19
  3
ACAD_PLOTSTYLENAME
350
E
  3
ACAD_SCALELIST
350
47
  0
DICTIONARY
  5
D
102
{ACAD_REACTORS
330
C
102
}
330
C
100
AcDbDictionary
281
     1
  0
DICTIONARY
  5
1A
102
{ACAD_REACTORS
330
C
102
}
330
C
100
AcDbDictionary
281
     1
  3
Layout1
350
1E
  3
Layout2
350
26
  3
Model
350
22
  0
DICTIONARY
  5
17
102
{ACAD_REACTORS
330
C
102
}
330
C
100
AcDbDictionary
281
     1
  3
Standard
350
18
  0
DICTIONARY
  5
19
102
{ACAD_REACTORS
330
C
102
}
330
C
100
AcDbDictionary
281
     1
  0
ACDBDICTIONARYWDFLT
  5
E
102
{ACAD_REACTORS
330
C
102
}
330
C
100
AcDbDictionary
281
     1
  3
Normal
350
F
100
AcDbDictionaryWithDefault
340
F
  0
DICTIONARY
  5
47
102
{ACAD_REACTORS
330
C
102
}
330
C
100
AcDbDictionary
281
     1
  3
A0
350
48
  3
A1
350
49
  3
A2
350
4A
  3
A3
350
4B
  3
A4
350
4C
  3
A5
350
4D
  3
A6
350
4E
  3
A7
350
4F
  3
A8
350
50
  3
A9
350
51
  3
B0
350
52
  3
B1
350
53
  3
B2
350
54
  3
B3
350
55
  3
B4
350
56
  3
B5
350
57
  3
B6
350
58
  3
B7
350
59
  3
B8
350
5A
  3
B9
350
5B
  3
C0
350
5C
  3
C1
350
5D
  3
C2
350
5E
  3
C3
350
5F
  3
C4
350
60
  3
C5
350
61
  3
C6
350
62
  3
C7
350
63
  3
C8
350
64
  3
C9
350
65
  3
D0
350
66
  3
D1
350
67
  3
D2
350
68
  0
LAYOUT
  5
1E
102
{ACAD_REACTORS
330
1A
102
}
330
1A
100
AcDbPlotSettings
  1

  2
none_device
  4

  6

 40
0.0
 41
0.0
 42
0.0
 43
0.0
 44
0.0
 45
0.0
 46
0.0
 47
0.0
 48
0.0
 49
0.0
140
0.0
141
0.0
142
1.0
143
1.0
 70
   688
 72
     1
 73
     0
 74
     5
  7

 75
    16
147
1.0
148
0.0
149
0.0
100
AcDbLayout
  1
Layout1
 70
     1
 71
     1
 10
0.0
 20
0.0
 11
420.0
 21
297.0
 12
0.0
 22
0.0
 32
0.0
 14
1.0000000000E+20
 24
1.0000000000E+20
 34
1.0000000000E+20
 15
-1.0000000000E+20
 25
-1.0000000000E+20
 35
-1.0000000000E+20
146
0.0
 13
0.0
 23
0.0
 33
0.0
 16
1.0
 26
0.0
 36
0.0
 17
0.0
 27
1.0
 37
0.0
 76
     0
330
1B
  0
LAYOUT
  5
26
102
{ACAD_REACTORS
330
1A
102
}
330
1A
100
AcDbPlotSettings
  1

  2
none_device
  4

  6

 40
0.0
 41
0.0
 42
0.0
 43
0.0
 44
0.0
 45
0.0
 46
0.0
 47
0.0
 48
0.0
 49
0.0
140
0.0
141
0.0
142
1.0
143
1.0
 70
   688
 72
     1
 73
     0
 74
     5
  7

 75
    16
147
1.0
148
0.0
149
0.0
100
AcDbLayout
  1
Layout2
 70
     1
 71
     2
 10
0.0
 20
0.0
 11
0.0
 21
0.0
 12
0.0
 22
0.0
 32
0.0
 14
0.0
 24
0.0
 34
0.0
 15
0.0
 25
0.0
 35
0.0
146
0.0
 13
0.0
 23
0.0
 33
0.0
 16
1.0
 26
0.0
 36
0.0
 17
0.0
 27
1.0
 37
0.0
 76
     0
330
23
  0
LAYOUT
  5
22
102
{ACAD_REACTORS
330
1A
102
}
330
1A
100
AcDbPlotSettings
  1

  2
none_device
  4
ANSI_A_(11.00_x_8.50_Inches)
  6

 40
6.35
 41
19.05
 42
6.35000508
 43
19.05000254
 44
279.4
 45
215.9
 46
-11342.2934914431
 47
-8820.1362094784
 48
0.0
 49
0.0
140
0.0
141
0.0
142
0.0132706961
143
1.0
 70
  1696
 72
     0
 73
     0
 74
     0
  7

 75
     0
147
0.0179189148
148
-1300.4909072572
149
0.0
100
AcDbLayout
  1
Model
 70
     1
 71
     0
 10
0.0
 20
0.0
 11
420.0
 21
297.0
 12
0.0
 22
0.0
 32
0.0
 14
33634.4066326951
 24
26160.6925044188
 34
0.0
 15
34455.0116670194
 25
26700.0550096177
 35
0.0
146
0.0
 13
0.0
 23
0.0
 33
0.0
 16
1.0
 26
0.0
 36
0.0
 17
0.0
 27
1.0
 37
0.0
 76
     0
330
1F
331
29
  0
MLINESTYLE
  5
18
102
{ACAD_REACTORS
330
17
102
}
330
17
100
AcDbMlineStyle
  2
Standard
 70
     0
  3

 62
   256
 51
90.0
 52
90.0
 71
     2
 49
0.5
 62
   256
  6
BYLAYER
 49
-0.5
 62
   256
  6
BYLAYER
  0
ACDBPLACEHOLDER
  5
F
102
{ACAD_REACTORS
330
E
102
}
330
E
  0
SCALE
  5
48
102
{ACAD_REACTORS
330
47
102
}
330
47
100
AcDbScale
 70
     0
300
1:1
140
1.0
141
1.0
290
     1
  0
SCALE
  5
49
102
{ACAD_REACTORS
330
47
102
}
330
47
100
AcDbScale
 70
     0
300
1:2
140
1.0
141
2.0
290
     0
  0
SCALE
  5
4A
102
{ACAD_REACTORS
330
47
102
}
330
47
100
AcDbScale
 70
     0
300
1:4
140
1.0
141
4.0
290
     0
  0
SCALE
  5
4B
102
{ACAD_REACTORS
330
47
102
}
330
47
100
AcDbScale
 70
     0
300
1:5
140
1.0
141
5.0
290
     0
  0
SCALE
  5
4C
102
{ACAD_REACTORS
330
47
102
}
330
47
100
AcDbScale
 70
     0
300
1:8
140
1.0
141
8.0
290
     0
  0
SCALE
  5
4D
102
{ACAD_REACTORS
330
47
102
}
330
47
100
AcDbScale
 70
     0
300
1:10
140
1.0
141
10.0
290
     0
  0
SCALE
  5
4E
102
{ACAD_REACTORS
330
47
102
}
330
47
100
AcDbScale
 70
     0
300
1:16
140
1.0
141
16.0
290
     0
  0
SCALE
  5
4F
102
{ACAD_REACTORS
330
47
102
}
330
47
100
AcDbScale
 70
     0
300
1:20
140
1.0
141
20.0
290
     0
  0
SCALE
  5
50
102
{ACAD_REACTORS
330
47
102
}
330
47
100
AcDbScale
 70
     0
300
1:30
140
1.0
141
30.0
290
     0
  0
SCALE
  5
51
102
{ACAD_REACTORS
330
47
102
}
330
47
100
AcDbScale
 70
     0
300
1:40
140
1.0
141
40.0
290
     0
  0
SCALE
  5
52
102
{ACAD_REACTORS
330
47
102
}
330
47
100
AcDbScale
 70
     0
300
1:50
140
1.0
141
50.0
290
     0
  0
SCALE
  5
53
102
{ACAD_REACTORS
330
47
102
}
330
47
100
AcDbScale
 70
     0
300
1:100
140
1.0
141
100.0
290
     0
  0
SCALE
  5
54
102
{ACAD_REACTORS
330
47
102
}
330
47
100
AcDbScale
 70
     0
300
2:1
140
2.0
141
1.0
290
     0
  0
SCALE
  5
55
102
{ACAD_REACTORS
330
47
102
}
330
47
100
AcDbScale
 70
     0
300
4:1
140
4.0
141
1.0
290
     0
  0
SCALE
  5
56
102
{ACAD_REACTORS
330
47
102
}
330
47
100
AcDbScale
 70
     0
300
8:1
140
8.0
141
1.0
290
     0
  0
SCALE
  5
57
102
{ACAD_REACTORS
330
47
102
}
330
47
100
AcDbScale
 70
     0
300
10:1
140
10.0
141
1.0
290
     0
  0
SCALE
  5
58
102
{ACAD_REACTORS
330
47
102
}
330
47
100
AcDbScale
 70
     0
300
100:1
140
100.0
141
1.0
290
     0
  0
SCALE
  5
59
102
{ACAD_REACTORS
330
47
102
}
330
47
100
AcDbScale
 70
     0
300
1/128" = 1'-0"
140
0.0078125
141
12.0
290
     0
  0
SCALE
  5
5A
102
{ACAD_REACTORS
330
47
102
}
330
47
100
AcDbScale
 70
     0
300
1/64" = 1'-0"
140
0.015625
141
12.0
290
     0
  0
SCALE
  5
5B
102
{ACAD_REACTORS
330
47
102
}
330
47
100
AcDbScale
 70
     0
300
1/32" = 1'-0"
140
0.03125
141
12.0
290
     0
  0
SCALE
  5
5C
102
{ACAD_REACTORS
330
47
102
}
330
47
100
AcDbScale
 70
     0
300
1/16" = 1'-0"
140
0.0625
141
12.0
290
     0
  0
SCALE
  5
5D
102
{ACAD_REACTORS
330
47
102
}
330
47
100
AcDbScale
 70
     0
300
3/32" = 1'-0"
140
0.09375
141
12.0
290
     0
  0
SCALE
  5
5E
102
{ACAD_REACTORS
330
47
102
}
330
47
100
AcDbScale
 70
     0
300
1/8" = 1'-0"
140
0.125
141
12.0
290
     0
  0
SCALE
  5
5F
102
{ACAD_REACTORS
330
47
102
}
330
47
100
AcDbScale
 70
     0
300
3/16" = 1'-0"
140
0.1875
141
12.0
290
     0
  0
SCALE
  5
60
102
{ACAD_REACTORS
330
47
102
}
330
47
100
AcDbScale
 70
     0
300
1/4" = 1'-0"
140
0.25
141
12.0
290
     0
  0
SCALE
  5
61
102
{ACAD_REACTORS
330
47
102
}
330
47
100
AcDbScale
 70
     0
300
3/8" = 1'-0"
140
0.375
141
12.0
290
     0
  0
SCALE
  5
62
102
{ACAD_REACTORS
330
47
102
}
330
47
100
AcDbScale
 70
     0
300
1/2" = 1'-0"
140
0.5
141
12.0
290
     0
  0
SCALE
  5
63
102
{ACAD_REACTORS
330
47
102
}
330
47
100
AcDbScale
 70
     0
300
3/4" = 1'-0"
140
0.75
141
12.0
290
     0
  0
SCALE
  5
64
102
{ACAD_REACTORS
330
47
102
}
330
47
100
AcDbScale
 70
     0
300
1" = 1'-0"
140
1.0
141
12.0
290
     0
  0
SCALE
  5
65
102
{ACAD_REACTORS
330
47
102
}
330
47
100
AcDbScale
 70
     0
300
1-1/2" = 1'-0"
140
1.5
141
12.0
290
     0
  0
SCALE
  5
66
102
{ACAD_REACTORS
330
47
102
}
330
47
100
AcDbScale
 70
     0
300
3" = 1'-0"
140
3.0
141
12.0
290
     0
  0
SCALE
  5
67
102
{ACAD_REACTORS
330
47
102
}
330
47
100
AcDbScale
 70
     0
300
6" = 1'-0"
140
6.0
141
12.0
290
     0
  0
SCALE
  5
68
102
{ACAD_REACTORS
330
47
102
}
330
47
100
AcDbScale
 70
     0
300
1'-0" = 1'-0"
140
12.0
141
12.0
290
     0
  0
ENDSEC
  0
EOF
